ISO-10303-21;
HEADER;
FILE_DESCRIPTION (( 'STEP AP203' ),
    '1' );
FILE_NAME ('20185-E0W.STEP',
    '2009-09-14T20:47:51',
    ( 'Admin' ),
    ( 'Thorlabs, Inc.' ),
    'SwSTEP 2.0',
    'SolidWorks 2007',
    '' );
FILE_SCHEMA (( 'CONFIG_CONTROL_DESIGN' ));
ENDSEC;

DATA;
#1 = CARTESIAN_POINT ( 'NONE',  ( 0.0000000000000000000, 8.547752349680204900E-016, -2.000000000000004000 ) ) ;
#2 = DIRECTION ( 'NONE',  ( 0.0000000000000000000, 1.000000000000000000, 3.061515884555943100E-016 ) ) ;
#3 = DIRECTION ( 'NONE',  ( 0.0000000000000000000, 3.061515884555943100E-016, -1.000000000000000000 ) ) ;
#4 =( LENGTH_UNIT ( ) NAMED_UNIT ( * ) SI_UNIT ( .MILLI., .METRE. ) );
#5 = FACE_OUTER_BOUND ( 'NONE', #143, .T. ) ;
#6 = VECTOR ( 'NONE', #61, 1000.000000000000000 ) ;
#7 = PERSON_AND_ORGANIZATION ( #19, #14 ) ;
#8 = PRODUCT_DEFINITION ( 'UNKNOWN', '', #160, #9 ) ;
#9 = DESIGN_CONTEXT ( 'detailed design', #11, 'design' ) ;
#10 = APPLICATION_PROTOCOL_DEFINITION ( 'international standard', 'config_control_design', 1994, #11 ) ;
#11 = APPLICATION_CONTEXT ( 'configuration controlled 3d designs of mechanical parts and assemblies' ) ;
#12 = CC_DESIGN_PERSON_AND_ORGANIZATION_ASSIGNMENT ( #18, #13, ( #20 ) ) ;
#13 = PERSON_AND_ORGANIZATION_ROLE ( 'design_owner' ) ;
#14 = ORGANIZATION ( 'UNSPECIFIED', 'UNSPECIFIED', '' ) ;
#15 = DIRECTION ( 'NONE',  ( 0.0000000000000000000, 1.000000000000000000, 3.073328992872291900E-016 ) ) ;
#16 = DIRECTION ( 'NONE',  ( 0.0000000000000000000, 3.061515884555943100E-016, -1.000000000000000000 ) ) ;
#17 = DIRECTION ( 'NONE',  ( -1.224606353822377000E-016, 1.000000000000000000, 0.0000000000000000000 ) ) ;
#18 = PERSON_AND_ORGANIZATION ( #19, #14 ) ;
#19 = PERSON ( 'UNSPECIFIED', 'UNSPECIFIED', 'UNSPECIFIED', ('UNSPECIFIED'), ('UNSPECIFIED'), ('UNSPECIFIED') ) ;
#20 = PRODUCT ( '20185-E0W', '20185-E0W', '', ( #21 ) ) ;
#21 = MECHANICAL_CONTEXT ( 'NONE', #23, 'mechanical' ) ;
#22 = APPLICATION_PROTOCOL_DEFINITION ( 'international standard', 'config_control_design', 1994, #23 ) ;
#23 = APPLICATION_CONTEXT ( 'configuration controlled 3d designs of mechanical parts and assemblies' ) ;
#24 = UNCERTAINTY_MEASURE_WITH_UNIT (LENGTH_MEASURE( 1.000000000000000100E-005 ), #4, 'distance_accuracy_value', 'NONE');
#25 = CIRCLE ( 'NONE', #68, 12.70000000000003500 ) ;
#26 = CIRCLE ( 'NONE', #65, 12.69999999999999900 ) ;
#27 = CARTESIAN_POINT ( 'NONE',  ( 0.0000000000000000000, 12.69999999999999900, -2.000000000000000000 ) ) ;
#28 = DIRECTION ( 'NONE',  ( 0.0000000000000000000, 1.000000000000000000, 3.073328992872287500E-016 ) ) ;
#29 = DIRECTION ( 'NONE',  ( 0.0000000000000000000, 3.061515884555943100E-016, -1.000000000000000000 ) ) ;
#30 = CARTESIAN_POINT ( 'NONE',  ( 0.0000000000000000000, -1.520167967255325400E-017, 0.8416540937423822000 ) ) ;
#31 = AXIS2_PLACEMENT_3D ( 'NONE', #30, #29, #28 ) ;
#32 = CIRCLE ( 'NONE', #31, 12.70000000000003500 ) ;
#33 = CARTESIAN_POINT ( 'NONE',  ( 0.0000000000000000000, 8.226905484978720700E-015, -68.20000000000004500 ) ) ;
#34 = SPHERICAL_SURFACE ( 'NONE', #88, 70.19999999999986100 ) ;
#35 = LOCAL_TIME ( 16, 47, 51.00000000000000000, #36 ) ;
#36 = COORDINATED_UNIVERSAL_TIME_OFFSET ( 5, 0, .BEHIND. ) ;
#37 = CC_DESIGN_PERSON_AND_ORGANIZATION_ASSIGNMENT ( #39, #38, ( #8 ) ) ;
#38 = PERSON_AND_ORGANIZATION_ROLE ( 'creator' ) ;
#39 = PERSON_AND_ORGANIZATION ( #19, #14 ) ;
#40 = CC_DESIGN_APPROVAL ( #48, ( #8 ) ) ;
#41 = APPROVAL_DATE_TIME ( #42, #48 ) ;
#42 = DATE_AND_TIME ( #43, #44 ) ;
#43 = CALENDAR_DATE ( 2009, 14, 9 ) ;
#44 = LOCAL_TIME ( 16, 47, 51.00000000000000000, #45 ) ;
#45 = COORDINATED_UNIVERSAL_TIME_OFFSET ( 5, 0, .BEHIND. ) ;
#46 = APPROVAL_PERSON_ORGANIZATION ( #7, #48, #47 ) ;
#47 = APPROVAL_ROLE ( '' ) ;
#48 = APPROVAL ( #49, 'UNSPECIFIED' ) ;
#49 = APPROVAL_STATUS ( 'not_yet_approved' ) ;
#50 =( NAMED_UNIT ( * ) SI_UNIT ( $, .STERADIAN. ) SOLID_ANGLE_UNIT ( ) );
#51 =( NAMED_UNIT ( * ) PLANE_ANGLE_UNIT ( ) SI_UNIT ( $, .RADIAN. ) );
#52 = DIRECTION ( 'NONE',  ( 0.0000000000000000000, 1.000000000000000000, 3.073328992872296400E-016 ) ) ;
#53 = CARTESIAN_POINT ( 'NONE',  ( 0.0000000000000000000, -8.966567722687421600E-015, 1.999999999999821500 ) ) ;
#54 = AXIS2_PLACEMENT_3D ( 'NONE', #73, #80, #17 ) ;
#55 = CARTESIAN_POINT ( 'NONE',  ( 0.0000000000000000000, 12.70000000000000300, 0.8416540937423860900 ) ) ;
#56 = CARTESIAN_POINT ( 'NONE',  ( 1.555250069354419700E-015, -12.70000000000001700, 0.8416540937423822000 ) ) ;
#57 = DIRECTION ( 'NONE',  ( 0.0000000000000000000, 3.061515884555943100E-016, -1.000000000000000000 ) ) ;
#58 = DIRECTION ( 'NONE',  ( 0.0000000000000000000, 1.000000000000000000, 3.073328992872287500E-016 ) ) ;
#59 = DIRECTION ( 'NONE',  ( 1.000000000000000000, 0.0000000000000000000, 0.0000000000000000000 ) ) ;
#60 = CIRCLE ( 'NONE', #54, 70.19999999999986100 ) ;
#61 = DIRECTION ( 'NONE',  ( 0.0000000000000000000, 3.061515884555943100E-016, -1.000000000000000000 ) ) ;
#62 = CARTESIAN_POINT ( 'NONE',  ( 1.555250069354421200E-015, -12.70000000000001700, -2.000000000000004000 ) ) ;
#63 = DIRECTION ( 'NONE',  ( 0.0000000000000000000, 3.061515884555943100E-016, -1.000000000000000000 ) ) ;
#64 = CARTESIAN_POINT ( 'NONE',  ( 0.0000000000000000000, 8.547752349680204900E-016, -2.000000000000004000 ) ) ;
#65 = AXIS2_PLACEMENT_3D ( 'NONE', #64, #63, #52 ) ;
#66 = CARTESIAN_POINT ( 'NONE',  ( 0.0000000000000000000, 8.547752349680193100E-016, -2.000000000000000000 ) ) ;
#67 = CARTESIAN_POINT ( 'NONE',  ( 0.0000000000000000000, -1.520167967255325400E-017, 0.8416540937423822000 ) ) ;
#68 = AXIS2_PLACEMENT_3D ( 'NONE', #67, #57, #58 ) ;
#69 = AXIS2_PLACEMENT_3D ( 'NONE', #66, #16, #15 ) ;
#70 = CARTESIAN_POINT ( 'NONE',  ( 1.555250069354420300E-015, -12.69999999999999900, -2.000000000000008000 ) ) ;
#71 = FACE_OUTER_BOUND ( 'NONE', #109, .T. ) ;
#72 = CYLINDRICAL_SURFACE ( 'NONE', #69, 12.70000000000001700 ) ;
#73 = CARTESIAN_POINT ( 'NONE',  ( 0.0000000000000000000, 8.226905484978720700E-015, -68.20000000000004500 ) ) ;
#74 = CARTESIAN_POINT ( 'NONE',  ( 0.0000000000000000000, 8.547752349680199000E-016, -2.000000000000001800 ) ) ;
#75 = AXIS2_PLACEMENT_3D ( 'NONE', #74, #3, #2 ) ;
#76 = CARTESIAN_POINT ( 'NONE',  ( 0.0000000000000000000, 0.0000000000000000000, 0.0000000000000000000 ) ) ;
#77 = DIRECTION ( 'NONE',  ( 0.0000000000000000000, 0.0000000000000000000, 1.000000000000000000 ) ) ;
#78 = AXIS2_PLACEMENT_3D ( 'NONE', #76, #77, #59 ) ;
#79 = LINE ( 'NONE', #62, #6 ) ;
#80 = DIRECTION ( 'NONE',  ( 1.000000000000000000, 1.224606353822377300E-016, 3.749151804555343600E-032 ) ) ;
#81 = DIRECTION ( 'NONE',  ( 0.0000000000000000000, 1.000000000000000000, 3.073328992872296400E-016 ) ) ;
#82 = DIRECTION ( 'NONE',  ( 0.0000000000000000000, 3.061515884555943100E-016, -1.000000000000000000 ) ) ;
#83 = AXIS2_PLACEMENT_3D ( 'NONE', #1, #82, #81 ) ;
#84 = CIRCLE ( 'NONE', #83, 12.69999999999999900 ) ;
#85 = PLANE ( 'NONE',  #75 ) ;
#86 = DIRECTION ( 'NONE',  ( 0.0000000000000000000, 1.000000000000000000, 3.953785700232046800E-016 ) ) ;
#87 = DIRECTION ( 'NONE',  ( 1.000000000000000000, 0.0000000000000000000, 0.0000000000000000000 ) ) ;
#88 = AXIS2_PLACEMENT_3D ( 'NONE', #33, #87, #86 ) ;
#89 = FACE_OUTER_BOUND ( 'NONE', #162, .T. ) ;
#90 = ADVANCED_BREP_SHAPE_REPRESENTATION ( '20185-E0W', ( #140, #78 ), #91 ) ;
#91 =( GEOMETRIC_REPRESENTATION_CONTEXT ( 3 ) GLOBAL_UNCERTAINTY_ASSIGNED_CONTEXT ( ( #24 ) ) GLOBAL_UNIT_ASSIGNED_CONTEXT ( ( #4, #51, #50 ) ) REPRESENTATION_CONTEXT ( 'NONE', 'WORKASPACE' ) );
#92 = SECURITY_CLASSIFICATION_LEVEL ( 'unclassified' ) ;
#93 = ADVANCED_FACE ( 'NONE', ( #157 ), #186, .T. ) ;
#94 = EDGE_LOOP ( 'NONE', ( #137, #110, #113, #95 ) ) ;
#95 = ORIENTED_EDGE ( 'NONE', *, *, #96, .F. ) ;
#96 = EDGE_CURVE ( 'NONE', #139, #115, #196, .T. ) ;
#97 = ADVANCED_FACE ( 'NONE', ( #197 ), #187, .T. ) ;
#98 = EDGE_LOOP ( 'NONE', ( #99, #102, #104 ) ) ;
#99 = ORIENTED_EDGE ( 'NONE', *, *, #100, .F. ) ;
#100 = EDGE_CURVE ( 'NONE', #101, #139, #152, .T. ) ;
#101 = VERTEX_POINT ( 'NONE', #53 ) ;
#102 = ORIENTED_EDGE ( 'NONE', *, *, #103, .T. ) ;
#103 = EDGE_CURVE ( 'NONE', #101, #138, #60, .T. ) ;
#104 = ORIENTED_EDGE ( 'NONE', *, *, #141, .F. ) ;
#105 = ORIENTED_EDGE ( 'NONE', *, *, #100, .T. ) ;
#106 = ORIENTED_EDGE ( 'NONE', *, *, #107, .F. ) ;
#107 = EDGE_CURVE ( 'NONE', #138, #139, #25, .T. ) ;
#108 = ADVANCED_FACE ( 'NONE', ( #71 ), #72, .T. ) ;
#109 = EDGE_LOOP ( 'NONE', ( #145, #146, #147, #165 ) ) ;
#110 = ORIENTED_EDGE ( 'NONE', *, *, #111, .T. ) ;
#111 = EDGE_CURVE ( 'NONE', #138, #112, #79, .T. ) ;
#112 = VERTEX_POINT ( 'NONE', #70 ) ;
#113 = ORIENTED_EDGE ( 'NONE', *, *, #114, .F. ) ;
#114 = EDGE_CURVE ( 'NONE', #115, #112, #26, .T. ) ;
#115 = VERTEX_POINT ( 'NONE', #27 ) ;
#116 = DATE_AND_TIME ( #126, #131 ) ;
#117 = DATE_TIME_ROLE ( 'classification_date' ) ;
#118 = LOCAL_TIME ( 16, 47, 51.00000000000000000, #132 ) ;
#119 = CC_DESIGN_DATE_AND_TIME_ASSIGNMENT ( #116, #117, ( #182 ) ) ;
#120 = PRODUCT_DEFINITION_SHAPE ( 'NONE', 'NONE',  #8 ) ;
#121 = SHAPE_DEFINITION_REPRESENTATION ( #120, #90 ) ;
#122 = APPROVAL_DATE_TIME ( #123, #133 ) ;
#123 = DATE_AND_TIME ( #129, #118 ) ;
#124 = APPROVAL_STATUS ( 'not_yet_approved' ) ;
#125 = PERSON_AND_ORGANIZATION ( #19, #14 ) ;
#126 = CALENDAR_DATE ( 2009, 14, 9 ) ;
#127 = PRODUCT_RELATED_PRODUCT_CATEGORY ( 'detail', '', ( #20 ) ) ;
#128 = CC_DESIGN_SECURITY_CLASSIFICATION ( #182, ( #160 ) ) ;
#129 = CALENDAR_DATE ( 2009, 14, 9 ) ;
#130 = CC_DESIGN_APPROVAL ( #133, ( #182 ) ) ;
#131 = LOCAL_TIME ( 16, 47, 51.00000000000000000, #134 ) ;
#132 = COORDINATED_UNIVERSAL_TIME_OFFSET ( 5, 0, .BEHIND. ) ;
#133 = APPROVAL ( #124, 'UNSPECIFIED' ) ;
#134 = COORDINATED_UNIVERSAL_TIME_OFFSET ( 5, 0, .BEHIND. ) ;
#135 = APPROVAL_ROLE ( '' ) ;
#136 = APPROVAL_PERSON_ORGANIZATION ( #125, #133, #135 ) ;
#137 = ORIENTED_EDGE ( 'NONE', *, *, #141, .T. ) ;
#138 = VERTEX_POINT ( 'NONE', #56 ) ;
#139 = VERTEX_POINT ( 'NONE', #55 ) ;
#140 = MANIFOLD_SOLID_BREP ( 'NONE', #148 ) ;
#141 = EDGE_CURVE ( 'NONE', #139, #138, #32, .T. ) ;
#142 = ADVANCED_FACE ( 'NONE', ( #5 ), #34, .T. ) ;
#143 = EDGE_LOOP ( 'NONE', ( #144, #105, #106 ) ) ;
#144 = ORIENTED_EDGE ( 'NONE', *, *, #103, .F. ) ;
#145 = ORIENTED_EDGE ( 'NONE', *, *, #111, .F. ) ;
#146 = ORIENTED_EDGE ( 'NONE', *, *, #107, .T. ) ;
#147 = ORIENTED_EDGE ( 'NONE', *, *, #96, .T. ) ;
#148 = CLOSED_SHELL ( 'NONE', ( #93, #97, #153, #142, #108 ) ) ;
#149 = ORIENTED_EDGE ( 'NONE', *, *, #114, .T. ) ;
#150 = CC_DESIGN_DATE_AND_TIME_ASSIGNMENT ( #155, #159, ( #8 ) ) ;
#151 = DIRECTION ( 'NONE',  ( -1.000000000000000000, 0.0000000000000000000, 0.0000000000000000000 ) ) ;
#152 = CIRCLE ( 'NONE', #161, 70.19999999999986100 ) ;
#153 = ADVANCED_FACE ( 'NONE', ( #89 ), #85, .T. ) ;
#154 = CARTESIAN_POINT ( 'NONE',  ( 0.0000000000000000000, 8.226905484978720700E-015, -68.20000000000004500 ) ) ;
#155 = DATE_AND_TIME ( #164, #35 ) ;
#156 = DIRECTION ( 'NONE',  ( 0.0000000000000000000, 0.0000000000000000000, 1.000000000000000000 ) ) ;
#157 = FACE_OUTER_BOUND ( 'NONE', #94, .T. ) ;
#158 = EDGE_CURVE ( 'NONE', #112, #115, #84, .T. ) ;
#159 = DATE_TIME_ROLE ( 'creation_date' ) ;
#160 = PRODUCT_DEFINITION_FORMATION_WITH_SPECIFIED_SOURCE ( 'ANY', '', #20, .NOT_KNOWN. ) ;
#161 = AXIS2_PLACEMENT_3D ( 'NONE', #154, #151, #156 ) ;
#162 = EDGE_LOOP ( 'NONE', ( #149, #163 ) ) ;
#163 = ORIENTED_EDGE ( 'NONE', *, *, #158, .T. ) ;
#164 = CALENDAR_DATE ( 2009, 14, 9 ) ;
#165 = ORIENTED_EDGE ( 'NONE', *, *, #158, .F. ) ;
#166 = APPROVAL_STATUS ( 'not_yet_approved' ) ;
#167 = PERSON_AND_ORGANIZATION ( #19, #14 ) ;
#168 = PERSON_AND_ORGANIZATION ( #19, #14 ) ;
#169 = CC_DESIGN_PERSON_AND_ORGANIZATION_ASSIGNMENT ( #168, #178, ( #182 ) ) ;
#170 = LOCAL_TIME ( 16, 47, 51.00000000000000000, #181 ) ;
#171 = CALENDAR_DATE ( 2009, 14, 9 ) ;
#172 = APPROVAL_ROLE ( '' ) ;
#173 = APPROVAL ( #166, 'UNSPECIFIED' ) ;
#174 = CC_DESIGN_APPROVAL ( #173, ( #160 ) ) ;
#175 = APPROVAL_DATE_TIME ( #177, #173 ) ;
#176 = CC_DESIGN_PERSON_AND_ORGANIZATION_ASSIGNMENT ( #201, #180, ( #160 ) ) ;
#177 = DATE_AND_TIME ( #171, #170 ) ;
#178 = PERSON_AND_ORGANIZATION_ROLE ( 'classification_officer' ) ;
#179 = APPROVAL_PERSON_ORGANIZATION ( #167, #173, #172 ) ;
#180 = PERSON_AND_ORGANIZATION_ROLE ( 'design_supplier' ) ;
#181 = COORDINATED_UNIVERSAL_TIME_OFFSET ( 5, 0, .BEHIND. ) ;
#182 = SECURITY_CLASSIFICATION ( '', '', #92 ) ;
#183 = CARTESIAN_POINT ( 'NONE',  ( 0.0000000000000000000, 8.547752349680193100E-016, -2.000000000000000000 ) ) ;
#184 = DIRECTION ( 'NONE',  ( 0.0000000000000000000, 1.000000000000000000, 3.953785700232046800E-016 ) ) ;
#185 = AXIS2_PLACEMENT_3D ( 'NONE', #191, #190, #184 ) ;
#186 = CYLINDRICAL_SURFACE ( 'NONE', #194, 12.70000000000001700 ) ;
#187 = SPHERICAL_SURFACE ( 'NONE', #185, 70.19999999999986100 ) ;
#188 = PERSON_AND_ORGANIZATION ( #19, #14 ) ;
#189 = DIRECTION ( 'NONE',  ( 0.0000000000000000000, 1.000000000000000000, 3.073328992872291900E-016 ) ) ;
#190 = DIRECTION ( 'NONE',  ( 1.000000000000000000, 0.0000000000000000000, 0.0000000000000000000 ) ) ;
#191 = CARTESIAN_POINT ( 'NONE',  ( 0.0000000000000000000, 8.226905484978720700E-015, -68.20000000000004500 ) ) ;
#192 = CC_DESIGN_PERSON_AND_ORGANIZATION_ASSIGNMENT ( #188, #195, ( #160 ) ) ;
#193 = DIRECTION ( 'NONE',  ( 0.0000000000000000000, 3.061515884555943100E-016, -1.000000000000000000 ) ) ;
#194 = AXIS2_PLACEMENT_3D ( 'NONE', #183, #193, #189 ) ;
#195 = PERSON_AND_ORGANIZATION_ROLE ( 'creator' ) ;
#196 = LINE ( 'NONE', #200, #199 ) ;
#197 = FACE_OUTER_BOUND ( 'NONE', #98, .T. ) ;
#198 = DIRECTION ( 'NONE',  ( 0.0000000000000000000, 3.061515884555943100E-016, -1.000000000000000000 ) ) ;
#199 = VECTOR ( 'NONE', #198, 1000.000000000000000 ) ;
#200 = CARTESIAN_POINT ( 'NONE',  ( 0.0000000000000000000, 12.70000000000001700, -1.999999999999996200 ) ) ;
#201 = PERSON_AND_ORGANIZATION ( #19, #14 ) ;
ENDSEC;
END-ISO-10303-21;
