ISO-10303-21;
HEADER;
FILE_DESCRIPTION (( 'STEP AP203' ),
    '1' );
FILE_NAME ('Web Model 83466.STEP',
    '2017-02-01T15:21:46',
    ( '' ),
    ( '' ),
    'SwSTEP 2.0',
    'SolidWorks 2016',
    '' );
FILE_SCHEMA (( 'CONFIG_CONTROL_DESIGN' ));
ENDSEC;

DATA;
#1 = APPLICATION_PROTOCOL_DEFINITION ( 'international standard', 'config_control_design', 1994, #64 ) ;
#2 =( GEOMETRIC_REPRESENTATION_CONTEXT ( 3 ) GLOBAL_UNCERTAINTY_ASSIGNED_CONTEXT ( ( #106 ) ) GLOBAL_UNIT_ASSIGNED_CONTEXT ( ( #77, #159, #141 ) ) REPRESENTATION_CONTEXT ( 'NONE', 'WORKASPACE' ) );
#3 = CARTESIAN_POINT ( 'NONE',  ( 0.0000000000000000000, 0.0000000000000000000, 2.000000000000000000 ) ) ;
#4 = ADVANCED_FACE ( 'NONE', ( #39 ), #113, .T. ) ;
#5 = AXIS2_PLACEMENT_3D ( 'NONE', #137, #115, #53 ) ;
#6 = CIRCLE ( 'NONE', #24, 5.000000000000000000 ) ;
#7 = EDGE_CURVE ( 'NONE', #155, #23, #19, .T. ) ;
#8 = MANIFOLD_SOLID_BREP ( 'Extrude1', #30 ) ;
#9 = COORDINATED_UNIVERSAL_TIME_OFFSET ( 5, 0, .BEHIND. ) ;
#10 = APPROVAL_PERSON_ORGANIZATION ( #25, #28, #66 ) ;
#11 = VECTOR ( 'NONE', #140, 1000.000000000000000 ) ;
#12 = CARTESIAN_POINT ( 'NONE',  ( 0.0000000000000000000, 0.0000000000000000000, 0.0000000000000000000 ) ) ;
#13 = COORDINATED_UNIVERSAL_TIME_OFFSET ( 5, 0, .BEHIND. ) ;
#14 = ORIENTED_EDGE ( 'NONE', *, *, #83, .F. ) ;
#15 = PLANE ( 'NONE',  #120 ) ;
#16 = DIRECTION ( 'NONE',  ( 0.0000000000000000000, 0.0000000000000000000, 1.000000000000000000 ) ) ;
#17 = APPROVAL_DATE_TIME ( #33, #28 ) ;
#18 = PERSON_AND_ORGANIZATION_ROLE ( 'design_supplier' ) ;
#19 = CIRCLE ( 'NONE', #81, 5.000000000000000000 ) ;
#20 = CARTESIAN_POINT ( 'NONE',  ( 5.000000000000000000, 6.123233995736766300E-016, 2.000000000000000000 ) ) ;
#21 = DIRECTION ( 'NONE',  ( -1.000000000000000000, 0.0000000000000000000, 0.0000000000000000000 ) ) ;
#22 = DIRECTION ( 'NONE',  ( -0.0000000000000000000, -0.0000000000000000000, -1.000000000000000000 ) ) ;
#23 = VERTEX_POINT ( 'NONE', #90 ) ;
#24 = AXIS2_PLACEMENT_3D ( 'NONE', #92, #75, #65 ) ;
#25 = PERSON_AND_ORGANIZATION ( #121, #125 ) ;
#26 = APPROVAL_DATE_TIME ( #68, #143 ) ;
#27 = DIRECTION ( 'NONE',  ( -1.000000000000000000, 0.0000000000000000000, 0.0000000000000000000 ) ) ;
#28 = APPROVAL ( #104, 'UNSPECIFIED' ) ;
#29 = CARTESIAN_POINT ( 'NONE',  ( 0.0000000000000000000, 0.0000000000000000000, 2.000000000000000000 ) ) ;
#30 = CLOSED_SHELL ( 'NONE', ( #145, #4, #56, #52 ) ) ;
#31 = SECURITY_CLASSIFICATION_LEVEL ( 'unclassified' ) ;
#32 = DIRECTION ( 'NONE',  ( 0.0000000000000000000, 0.0000000000000000000, 1.000000000000000000 ) ) ;
#33 = DATE_AND_TIME ( #60, #154 ) ;
#34 = MECHANICAL_CONTEXT ( 'NONE', #175, 'mechanical' ) ;
#35 = PRODUCT ( 'Web Model 83466', 'Web Model 83466', '', ( #34 ) ) ;
#36 = CYLINDRICAL_SURFACE ( 'NONE', #37, 5.000000000000000000 ) ;
#37 = AXIS2_PLACEMENT_3D ( 'NONE', #3, #22, #21 ) ;
#38 = CC_DESIGN_APPROVAL ( #169, ( #130 ) ) ;
#39 = FACE_OUTER_BOUND ( 'NONE', #94, .T. ) ;
#40 = DIRECTION ( 'NONE',  ( 0.0000000000000000000, 0.0000000000000000000, 1.000000000000000000 ) ) ;
#41 = DATE_TIME_ROLE ( 'classification_date' ) ;
#42 = CARTESIAN_POINT ( 'NONE',  ( 0.0000000000000000000, 0.0000000000000000000, 0.0000000000000000000 ) ) ;
#43 = VERTEX_POINT ( 'NONE', #173 ) ;
#44 = CC_DESIGN_PERSON_AND_ORGANIZATION_ASSIGNMENT ( #148, #156, ( #95 ) ) ;
#45 = APPROVAL_PERSON_ORGANIZATION ( #85, #143, #67 ) ;
#46 = VECTOR ( 'NONE', #91, 1000.000000000000000 ) ;
#47 = ORIENTED_EDGE ( 'NONE', *, *, #83, .T. ) ;
#48 = CALENDAR_DATE ( 2017, 1, 2 ) ;
#49 = ORIENTED_EDGE ( 'NONE', *, *, #118, .F. ) ;
#50 = DIRECTION ( 'NONE',  ( 1.000000000000000000, 0.0000000000000000000, -0.0000000000000000000 ) ) ;
#51 = APPROVAL_STATUS ( 'not_yet_approved' ) ;
#52 = ADVANCED_FACE ( 'NONE', ( #82 ), #15, .F. ) ;
#53 = DIRECTION ( 'NONE',  ( 1.000000000000000000, 0.0000000000000000000, 0.0000000000000000000 ) ) ;
#54 = PERSON_AND_ORGANIZATION_ROLE ( 'design_owner' ) ;
#55 = APPROVAL_STATUS ( 'not_yet_approved' ) ;
#56 = ADVANCED_FACE ( 'NONE', ( #146 ), #123, .T. ) ;
#57 = PERSON_AND_ORGANIZATION ( #121, #125 ) ;
#58 = PERSON_AND_ORGANIZATION ( #121, #125 ) ;
#59 = EDGE_CURVE ( 'NONE', #43, #69, #110, .T. ) ;
#60 = CALENDAR_DATE ( 2017, 1, 2 ) ;
#61 = ORIENTED_EDGE ( 'NONE', *, *, #7, .F. ) ;
#62 = CARTESIAN_POINT ( 'NONE',  ( 0.0000000000000000000, 0.0000000000000000000, 2.000000000000000000 ) ) ;
#63 = DATE_TIME_ROLE ( 'creation_date' ) ;
#64 = APPLICATION_CONTEXT ( 'configuration controlled 3d designs of mechanical parts and assemblies' ) ;
#65 = DIRECTION ( 'NONE',  ( 1.000000000000000000, 0.0000000000000000000, 0.0000000000000000000 ) ) ;
#66 = APPROVAL_ROLE ( '' ) ;
#67 = APPROVAL_ROLE ( '' ) ;
#68 = DATE_AND_TIME ( #96, #139 ) ;
#69 = VERTEX_POINT ( 'NONE', #88 ) ;
#70 = CC_DESIGN_PERSON_AND_ORGANIZATION_ASSIGNMENT ( #58, #54, ( #35 ) ) ;
#71 = DIRECTION ( 'NONE',  ( 1.000000000000000000, 0.0000000000000000000, -0.0000000000000000000 ) ) ;
#72 = SHAPE_DEFINITION_REPRESENTATION ( #87, #93 ) ;
#73 = CC_DESIGN_APPROVAL ( #28, ( #95 ) ) ;
#74 = EDGE_CURVE ( 'NONE', #23, #43, #163, .T. ) ;
#75 = DIRECTION ( 'NONE',  ( 0.0000000000000000000, 0.0000000000000000000, 1.000000000000000000 ) ) ;
#76 = LINE ( 'NONE', #20, #11 ) ;
#77 =( LENGTH_UNIT ( ) NAMED_UNIT ( * ) SI_UNIT ( .MILLI., .METRE. ) );
#78 = ORIENTED_EDGE ( 'NONE', *, *, #59, .F. ) ;
#79 = LOCAL_TIME ( 10, 21, 46.00000000000000000, #128 ) ;
#80 = CARTESIAN_POINT ( 'NONE',  ( 0.0000000000000000000, 0.0000000000000000000, 0.0000000000000000000 ) ) ;
#81 = AXIS2_PLACEMENT_3D ( 'NONE', #29, #16, #172 ) ;
#82 = FACE_OUTER_BOUND ( 'NONE', #86, .T. ) ;
#83 = EDGE_CURVE ( 'NONE', #155, #69, #76, .T. ) ;
#84 = CC_DESIGN_DATE_AND_TIME_ASSIGNMENT ( #144, #63, ( #95 ) ) ;
#85 = PERSON_AND_ORGANIZATION ( #121, #125 ) ;
#86 = EDGE_LOOP ( 'NONE', ( #78, #49 ) ) ;
#87 = PRODUCT_DEFINITION_SHAPE ( 'NONE', 'NONE',  #95 ) ;
#88 = CARTESIAN_POINT ( 'NONE',  ( 5.000000000000000000, 6.123233995736766300E-016, 0.0000000000000000000 ) ) ;
#89 = DATE_AND_TIME ( #152, #124 ) ;
#90 = CARTESIAN_POINT ( 'NONE',  ( -5.000000000000000000, 0.0000000000000000000, 2.000000000000000000 ) ) ;
#91 = DIRECTION ( 'NONE',  ( -0.0000000000000000000, -0.0000000000000000000, -1.000000000000000000 ) ) ;
#92 = CARTESIAN_POINT ( 'NONE',  ( 0.0000000000000000000, 0.0000000000000000000, 2.000000000000000000 ) ) ;
#93 = ADVANCED_BREP_SHAPE_REPRESENTATION ( 'Web Model 83466', ( #8, #5 ), #2 ) ;
#94 = EDGE_LOOP ( 'NONE', ( #14, #132, #131, #133 ) ) ;
#95 = PRODUCT_DEFINITION ( 'UNKNOWN', '', #127, #103 ) ;
#96 = CALENDAR_DATE ( 2017, 1, 2 ) ;
#97 = PRODUCT_RELATED_PRODUCT_CATEGORY ( 'detail', '', ( #35 ) ) ;
#98 = DIRECTION ( 'NONE',  ( -0.0000000000000000000, -0.0000000000000000000, -1.000000000000000000 ) ) ;
#99 = CARTESIAN_POINT ( 'NONE',  ( 0.0000000000000000000, 0.0000000000000000000, 2.000000000000000000 ) ) ;
#100 = EDGE_LOOP ( 'NONE', ( #61, #47, #105, #117 ) ) ;
#101 = DIRECTION ( 'NONE',  ( 1.000000000000000000, 0.0000000000000000000, 0.0000000000000000000 ) ) ;
#102 = CIRCLE ( 'NONE', #116, 5.000000000000000000 ) ;
#103 = DESIGN_CONTEXT ( 'detailed design', #64, 'design' ) ;
#104 = APPROVAL_STATUS ( 'not_yet_approved' ) ;
#105 = ORIENTED_EDGE ( 'NONE', *, *, #118, .T. ) ;
#106 = UNCERTAINTY_MEASURE_WITH_UNIT (LENGTH_MEASURE( 1.000000000000000100E-005 ), #77, 'distance_accuracy_value', 'NONE');
#107 = FACE_OUTER_BOUND ( 'NONE', #100, .T. ) ;
#108 = EDGE_LOOP ( 'NONE', ( #166, #149 ) ) ;
#109 = APPROVAL_DATE_TIME ( #142, #169 ) ;
#110 = CIRCLE ( 'NONE', #134, 5.000000000000000000 ) ;
#111 = EDGE_CURVE ( 'NONE', #23, #155, #6, .T. ) ;
#112 = PERSON_AND_ORGANIZATION_ROLE ( 'classification_officer' ) ;
#113 = CYLINDRICAL_SURFACE ( 'NONE', #122, 5.000000000000000000 ) ;
#114 = CARTESIAN_POINT ( 'NONE',  ( 5.000000000000000000, 6.123233995736766300E-016, 2.000000000000000000 ) ) ;
#115 = DIRECTION ( 'NONE',  ( 0.0000000000000000000, 0.0000000000000000000, 1.000000000000000000 ) ) ;
#116 = AXIS2_PLACEMENT_3D ( 'NONE', #42, #129, #101 ) ;
#117 = ORIENTED_EDGE ( 'NONE', *, *, #74, .F. ) ;
#118 = EDGE_CURVE ( 'NONE', #69, #43, #102, .T. ) ;
#119 = CC_DESIGN_PERSON_AND_ORGANIZATION_ASSIGNMENT ( #170, #18, ( #127 ) ) ;
#120 = AXIS2_PLACEMENT_3D ( 'NONE', #12, #151, #71 ) ;
#121 = PERSON ( 'UNSPECIFIED', 'UNSPECIFIED', 'UNSPECIFIED', ('UNSPECIFIED'), ('UNSPECIFIED'), ('UNSPECIFIED') ) ;
#122 = AXIS2_PLACEMENT_3D ( 'NONE', #62, #98, #27 ) ;
#123 = PLANE ( 'NONE',  #171 ) ;
#124 = LOCAL_TIME ( 10, 21, 46.00000000000000000, #162 ) ;
#125 = ORGANIZATION ( 'UNSPECIFIED', 'UNSPECIFIED', '' ) ;
#126 = PERSON_AND_ORGANIZATION ( #121, #125 ) ;
#127 = PRODUCT_DEFINITION_FORMATION_WITH_SPECIFIED_SOURCE ( 'ANY', '', #35, .NOT_KNOWN. ) ;
#128 = COORDINATED_UNIVERSAL_TIME_OFFSET ( 5, 0, .BEHIND. ) ;
#129 = DIRECTION ( 'NONE',  ( 0.0000000000000000000, 0.0000000000000000000, 1.000000000000000000 ) ) ;
#130 = SECURITY_CLASSIFICATION ( '', '', #31 ) ;
#131 = ORIENTED_EDGE ( 'NONE', *, *, #74, .T. ) ;
#132 = ORIENTED_EDGE ( 'NONE', *, *, #111, .F. ) ;
#133 = ORIENTED_EDGE ( 'NONE', *, *, #59, .T. ) ;
#134 = AXIS2_PLACEMENT_3D ( 'NONE', #80, #32, #158 ) ;
#135 = CARTESIAN_POINT ( 'NONE',  ( -5.000000000000000000, 0.0000000000000000000, 2.000000000000000000 ) ) ;
#136 = COORDINATED_UNIVERSAL_TIME_OFFSET ( 5, 0, .BEHIND. ) ;
#137 = CARTESIAN_POINT ( 'NONE',  ( 0.0000000000000000000, 0.0000000000000000000, 0.0000000000000000000 ) ) ;
#138 = APPLICATION_PROTOCOL_DEFINITION ( 'international standard', 'config_control_design', 1994, #175 ) ;
#139 = LOCAL_TIME ( 10, 21, 46.00000000000000000, #13 ) ;
#140 = DIRECTION ( 'NONE',  ( -0.0000000000000000000, -0.0000000000000000000, -1.000000000000000000 ) ) ;
#141 =( NAMED_UNIT ( * ) SI_UNIT ( $, .STERADIAN. ) SOLID_ANGLE_UNIT ( ) );
#142 = DATE_AND_TIME ( #48, #79 ) ;
#143 = APPROVAL ( #55, 'UNSPECIFIED' ) ;
#144 = DATE_AND_TIME ( #161, #150 ) ;
#145 = ADVANCED_FACE ( 'NONE', ( #107 ), #36, .T. ) ;
#146 = FACE_OUTER_BOUND ( 'NONE', #108, .T. ) ;
#147 = CC_DESIGN_PERSON_AND_ORGANIZATION_ASSIGNMENT ( #126, #112, ( #130 ) ) ;
#148 = PERSON_AND_ORGANIZATION ( #121, #125 ) ;
#149 = ORIENTED_EDGE ( 'NONE', *, *, #7, .T. ) ;
#150 = LOCAL_TIME ( 10, 21, 46.00000000000000000, #9 ) ;
#151 = DIRECTION ( 'NONE',  ( 0.0000000000000000000, 0.0000000000000000000, 1.000000000000000000 ) ) ;
#152 = CALENDAR_DATE ( 2017, 1, 2 ) ;
#153 = CC_DESIGN_DATE_AND_TIME_ASSIGNMENT ( #89, #41, ( #130 ) ) ;
#154 = LOCAL_TIME ( 10, 21, 46.00000000000000000, #136 ) ;
#155 = VERTEX_POINT ( 'NONE', #114 ) ;
#156 = PERSON_AND_ORGANIZATION_ROLE ( 'creator' ) ;
#157 = CC_DESIGN_APPROVAL ( #143, ( #127 ) ) ;
#158 = DIRECTION ( 'NONE',  ( 1.000000000000000000, 0.0000000000000000000, 0.0000000000000000000 ) ) ;
#159 =( NAMED_UNIT ( * ) PLANE_ANGLE_UNIT ( ) SI_UNIT ( $, .RADIAN. ) );
#160 = PERSON_AND_ORGANIZATION_ROLE ( 'creator' ) ;
#161 = CALENDAR_DATE ( 2017, 1, 2 ) ;
#162 = COORDINATED_UNIVERSAL_TIME_OFFSET ( 5, 0, .BEHIND. ) ;
#163 = LINE ( 'NONE', #135, #46 ) ;
#164 = CC_DESIGN_SECURITY_CLASSIFICATION ( #130, ( #127 ) ) ;
#165 = PERSON_AND_ORGANIZATION ( #121, #125 ) ;
#166 = ORIENTED_EDGE ( 'NONE', *, *, #111, .T. ) ;
#167 = CC_DESIGN_PERSON_AND_ORGANIZATION_ASSIGNMENT ( #165, #160, ( #127 ) ) ;
#168 = APPROVAL_PERSON_ORGANIZATION ( #57, #169, #174 ) ;
#169 = APPROVAL ( #51, 'UNSPECIFIED' ) ;
#170 = PERSON_AND_ORGANIZATION ( #121, #125 ) ;
#171 = AXIS2_PLACEMENT_3D ( 'NONE', #99, #40, #50 ) ;
#172 = DIRECTION ( 'NONE',  ( 1.000000000000000000, 0.0000000000000000000, 0.0000000000000000000 ) ) ;
#173 = CARTESIAN_POINT ( 'NONE',  ( -5.000000000000000000, 0.0000000000000000000, 0.0000000000000000000 ) ) ;
#174 = APPROVAL_ROLE ( '' ) ;
#175 = APPLICATION_CONTEXT ( 'configuration controlled 3d designs of mechanical parts and assemblies' ) ;
ENDSEC;
END-ISO-10303-21;
