ISO-10303-21;
HEADER;
FILE_DESCRIPTION (( 'STEP AP203' ),
    '1' );
FILE_NAME ('4276-E0W.STEP',
    '2015-05-29T14:20:18',
    ( 'admin' ),
    ( '' ),
    'SwSTEP 2.0',
    'SolidWorks 2014',
    '' );
FILE_SCHEMA (( 'CONFIG_CONTROL_DESIGN' ));
ENDSEC;

DATA;
#1 = CARTESIAN_POINT ( 'NONE',  ( 0.3500000000000030900, 0.0000000000000000000, 6.350000000000000500 ) ) ;
#2 = ORIENTED_EDGE ( 'NONE', *, *, #149, .T. ) ;
#3 = CARTESIAN_POINT ( 'NONE',  ( -1.200000000000000000, 0.0000000000000000000, 0.0000000000000000000 ) ) ;
#4 = AXIS2_PLACEMENT_3D ( 'NONE', #284, #299, #37 ) ;
#5 = APPLICATION_CONTEXT ( 'configuration controlled 3d designs of mechanical parts and assemblies' ) ;
#6 = SECURITY_CLASSIFICATION ( '', '', #194 ) ;
#7 = CC_DESIGN_PERSON_AND_ORGANIZATION_ASSIGNMENT ( #132, #67, ( #231 ) ) ;
#8 = DIRECTION ( 'NONE',  ( 0.0000000000000000000, 0.0000000000000000000, 1.000000000000000000 ) ) ;
#9 = PRODUCT ( '4276-E0W', '4276-E0W', '', ( #126 ) ) ;
#10 = DESIGN_CONTEXT ( 'detailed design', #5, 'design' ) ;
#11 = CARTESIAN_POINT ( 'NONE',  ( -0.9500000000000022900, 7.776507174585693100E-016, -6.350000000000000500 ) ) ;
#12 = EDGE_LOOP ( 'NONE', ( #101, #282, #133, #187 ) ) ;
#13 = ADVANCED_FACE ( 'NONE', ( #91 ), #98, .T. ) ;
#14 = ADVANCED_FACE ( 'NONE', ( #180 ), #217, .T. ) ;
#15 = EDGE_CURVE ( 'NONE', #33, #246, #243, .T. ) ;
#16 = ORIENTED_EDGE ( 'NONE', *, *, #230, .T. ) ;
#17 = ADVANCED_FACE ( 'NONE', ( #78 ), #287, .T. ) ;
#18 = DIRECTION ( 'NONE',  ( 0.0000000000000000000, 0.0000000000000000000, 1.000000000000000000 ) ) ;
#19 = EDGE_CURVE ( 'NONE', #45, #33, #192, .T. ) ;
#20 = AXIS2_PLACEMENT_3D ( 'NONE', #278, #212, #277 ) ;
#21 = TOROIDAL_SURFACE ( 'NONE', #283, -0.05649169282643259900, 34.50000000000000000 ) ;
#22 = CARTESIAN_POINT ( 'NONE',  ( 0.3500000000000030900, 0.0000000000000000000, 0.0000000000000000000 ) ) ;
#23 = DIRECTION ( 'NONE',  ( -1.000000000000000000, -0.0000000000000000000, -0.0000000000000000000 ) ) ;
#24 = CC_DESIGN_APPROVAL ( #232, ( #6 ) ) ;
#25 = ORIENTED_EDGE ( 'NONE', *, *, #51, .F. ) ;
#26 = DIRECTION ( 'NONE',  ( -0.7699660419090654800, 0.0000000000000000000, 0.6380848645022753100 ) ) ;
#27 = DIRECTION ( 'NONE',  ( 0.7071067811865463500, 0.0000000000000000000, -0.7071067811865487900 ) ) ;
#28 = AXIS2_PLACEMENT_3D ( 'NONE', #109, #23, #154 ) ;
#29 = EDGE_LOOP ( 'NONE', ( #16, #114 ) ) ;
#30 = CARTESIAN_POINT ( 'NONE',  ( -1.200000000000000000, 0.0000000000000000000, 6.350000000000000500 ) ) ;
#31 = DIRECTION ( 'NONE',  ( -1.000000000000000000, -0.0000000000000000000, -0.0000000000000000000 ) ) ;
#32 = DIRECTION ( 'NONE',  ( 1.000000000000000000, 0.0000000000000000000, 0.0000000000000000000 ) ) ;
#33 = VERTEX_POINT ( 'NONE', #11 ) ;
#34 = CC_DESIGN_SECURITY_CLASSIFICATION ( #6, ( #231 ) ) ;
#35 = APPROVAL_STATUS ( 'not_yet_approved' ) ;
#36 = CARTESIAN_POINT ( 'NONE',  ( -0.9500000000000022900, 0.0000000000000000000, 0.0000000000000000000 ) ) ;
#37 = DIRECTION ( 'NONE',  ( 0.0000000000000000000, 0.0000000000000000000, 1.000000000000000000 ) ) ;
#38 = EDGE_CURVE ( 'NONE', #123, #45, #199, .T. ) ;
#39 = APPROVAL_STATUS ( 'not_yet_approved' ) ;
#40 = COORDINATED_UNIVERSAL_TIME_OFFSET ( 5, 0, .BEHIND. ) ;
#41 = VERTEX_POINT ( 'NONE', #219 ) ;
#42 = ORIENTED_EDGE ( 'NONE', *, *, #269, .F. ) ;
#43 = APPROVAL ( #39, 'UNSPECIFIED' ) ;
#44 = CC_DESIGN_PERSON_AND_ORGANIZATION_ASSIGNMENT ( #202, #79, ( #106 ) ) ;
#45 = VERTEX_POINT ( 'NONE', #271 ) ;
#46 =( NAMED_UNIT ( * ) PLANE_ANGLE_UNIT ( ) SI_UNIT ( $, .RADIAN. ) );
#47 = DIRECTION ( 'NONE',  ( 0.0000000000000000000, 0.0000000000000000000, -1.000000000000000000 ) ) ;
#48 = DIRECTION ( 'NONE',  ( -1.000000000000000000, -0.0000000000000000000, -0.0000000000000000000 ) ) ;
#49 = UNCERTAINTY_MEASURE_WITH_UNIT (LENGTH_MEASURE( 1.000000000000000100E-005 ), #119, 'distance_accuracy_value', 'NONE');
#50 = CLOSED_SHELL ( 'NONE', ( #181, #13, #73, #14, #263, #290, #105, #17, #108 ) ) ;
#51 = EDGE_CURVE ( 'NONE', #246, #33, #300, .T. ) ;
#52 = LINE ( 'NONE', #103, #260 ) ;
#53 = DIRECTION ( 'NONE',  ( 1.000000000000000000, 0.0000000000000000000, 0.0000000000000000000 ) ) ;
#54 = EDGE_CURVE ( 'NONE', #223, #41, #52, .T. ) ;
#55 = DIRECTION ( 'NONE',  ( -1.000000000000000000, -0.0000000000000000000, -0.0000000000000000000 ) ) ;
#56 = ORIENTED_EDGE ( 'NONE', *, *, #296, .F. ) ;
#57 = DIRECTION ( 'NONE',  ( 0.0000000000000000000, 0.0000000000000000000, -1.000000000000000000 ) ) ;
#58 = CARTESIAN_POINT ( 'NONE',  ( 0.3500000000000030900, 0.0000000000000000000, 6.350000000000000500 ) ) ;
#59 = ORIENTED_EDGE ( 'NONE', *, *, #51, .T. ) ;
#60 = PERSON_AND_ORGANIZATION_ROLE ( 'design_owner' ) ;
#61 = CARTESIAN_POINT ( 'NONE',  ( 0.3500000000000030900, 0.0000000000000000000, 0.0000000000000000000 ) ) ;
#62 = PERSON_AND_ORGANIZATION_ROLE ( 'creator' ) ;
#63 = CARTESIAN_POINT ( 'NONE',  ( 0.6453402832310856100, 0.0000000000000000000, 0.0000000000000000000 ) ) ;
#64 = VERTEX_POINT ( 'NONE', #250 ) ;
#65 = EDGE_LOOP ( 'NONE', ( #143, #2, #261, #107 ) ) ;
#66 = CC_DESIGN_APPROVAL ( #207, ( #231 ) ) ;
#67 = PERSON_AND_ORGANIZATION_ROLE ( 'design_supplier' ) ;
#68 = APPLICATION_CONTEXT ( 'configuration controlled 3d designs of mechanical parts and assemblies' ) ;
#69 = DATE_AND_TIME ( #182, #185 ) ;
#70 = EDGE_LOOP ( 'NONE', ( #56, #165, #240, #59 ) ) ;
#71 =( NAMED_UNIT ( * ) SI_UNIT ( $, .STERADIAN. ) SOLID_ANGLE_UNIT ( ) );
#72 = DIRECTION ( 'NONE',  ( 1.000000000000000000, 0.0000000000000000000, 0.0000000000000000000 ) ) ;
#73 = ADVANCED_FACE ( 'NONE', ( #294 ), #21, .T. ) ;
#74 = DIRECTION ( 'NONE',  ( -0.0000000000000000000, 1.000000000000000000, 1.224646799147353200E-016 ) ) ;
#75 = APPLICATION_PROTOCOL_DEFINITION ( 'international standard', 'config_control_design', 1994, #68 ) ;
#76 = CIRCLE ( 'NONE', #189, 6.105246135088871800 ) ;
#77 = CONICAL_SURFACE ( 'NONE', #128, 6.100000000000002300, 0.7853981633974500600 ) ;
#78 = FACE_OUTER_BOUND ( 'NONE', #147, .T. ) ;
#79 = PERSON_AND_ORGANIZATION_ROLE ( 'creator' ) ;
#80 = APPROVAL_DATE_TIME ( #100, #232 ) ;
#81 = FACE_OUTER_BOUND ( 'NONE', #29, .T. ) ;
#82 = ORIENTED_EDGE ( 'NONE', *, *, #238, .F. ) ;
#83 = APPROVAL_ROLE ( '' ) ;
#84 = LINE ( 'NONE', #30, #90 ) ;
#85 = DIRECTION ( 'NONE',  ( -1.000000000000000000, -0.0000000000000000000, -0.0000000000000000000 ) ) ;
#86 = VECTOR ( 'NONE', #174, 1000.000000000000000 ) ;
#87 = CARTESIAN_POINT ( 'NONE',  ( -1.200000000000000000, 0.0000000000000000000, 0.0000000000000000000 ) ) ;
#88 = EDGE_CURVE ( 'NONE', #137, #223, #242, .T. ) ;
#89 = DIRECTION ( 'NONE',  ( 0.0000000000000000000, -1.224646799147353200E-016, 1.000000000000000000 ) ) ;
#90 = VECTOR ( 'NONE', #150, 1000.000000000000000 ) ;
#91 = FACE_OUTER_BOUND ( 'NONE', #186, .T. ) ;
#92 = CARTESIAN_POINT ( 'NONE',  ( 0.6453402832310890500, 7.476770137343340100E-016, -6.105246135088874500 ) ) ;
#93 = AXIS2_PLACEMENT_3D ( 'NONE', #61, #55, #224 ) ;
#94 = CARTESIAN_POINT ( 'NONE',  ( -1.200000000000000000, 7.470345474798857300E-016, 6.100000000000002300 ) ) ;
#95 = LINE ( 'NONE', #276, #86 ) ;
#96 = DIRECTION ( 'NONE',  ( 1.000000000000000000, 0.0000000000000000000, 0.0000000000000000000 ) ) ;
#97 = VECTOR ( 'NONE', #27, 1000.000000000000000 ) ;
#98 = CONICAL_SURFACE ( 'NONE', #237, 6.350000000000000500, 0.6920083956041451800 ) ;
#99 = DIRECTION ( 'NONE',  ( 0.0000000000000000000, 0.0000000000000000000, 1.000000000000000000 ) ) ;
#100 = DATE_AND_TIME ( #141, #140 ) ;
#101 = ORIENTED_EDGE ( 'NONE', *, *, #200, .T. ) ;
#102 = PERSON_AND_ORGANIZATION_ROLE ( 'classification_officer' ) ;
#103 = CARTESIAN_POINT ( 'NONE',  ( 0.3500000000000030900, 7.776507174585693100E-016, -6.350000000000000500 ) ) ;
#104 = DIRECTION ( 'NONE',  ( -1.000000000000000000, -0.0000000000000000000, -0.0000000000000000000 ) ) ;
#105 = ADVANCED_FACE ( 'NONE', ( #249 ), #270, .T. ) ;
#106 = PRODUCT_DEFINITION ( 'UNKNOWN', '', #231, #10 ) ;
#107 = ORIENTED_EDGE ( 'NONE', *, *, #19, .F. ) ;
#108 = ADVANCED_FACE ( 'NONE', ( #259 ), #264, .T. ) ;
#109 = CARTESIAN_POINT ( 'NONE',  ( -33.29995374907974800, 0.0000000000000000000, 0.0000000000000000000 ) ) ;
#110 = AXIS2_PLACEMENT_3D ( 'NONE', #36, #171, #57 ) ;
#111 = CARTESIAN_POINT ( 'NONE',  ( -0.9500000000000022900, 0.0000000000000000000, 6.350000000000000500 ) ) ;
#112 = APPROVAL_PERSON_ORGANIZATION ( #177, #43, #83 ) ;
#113 = COORDINATED_UNIVERSAL_TIME_OFFSET ( 5, 0, .BEHIND. ) ;
#114 = ORIENTED_EDGE ( 'NONE', *, *, #38, .T. ) ;
#115 = ORIENTED_EDGE ( 'NONE', *, *, #196, .T. ) ;
#116 = ADVANCED_BREP_SHAPE_REPRESENTATION ( '4276-E0W', ( #138, #117 ), #298 ) ;
#117 = AXIS2_PLACEMENT_3D ( 'NONE', #272, #275, #32 ) ;
#118 = LOCAL_TIME ( 10, 20, 18.00000000000000000, #198 ) ;
#119 =( LENGTH_UNIT ( ) NAMED_UNIT ( * ) SI_UNIT ( .MILLI., .METRE. ) );
#120 = DATE_AND_TIME ( #201, #118 ) ;
#121 = LOCAL_TIME ( 10, 20, 18.00000000000000000, #40 ) ;
#122 = DIRECTION ( 'NONE',  ( 0.0000000000000000000, 0.0000000000000000000, -1.000000000000000000 ) ) ;
#123 = VERTEX_POINT ( 'NONE', #175 ) ;
#124 = DIRECTION ( 'NONE',  ( -1.000000000000000000, -0.0000000000000000000, -0.0000000000000000000 ) ) ;
#125 = DATE_AND_TIME ( #208, #121 ) ;
#126 = MECHANICAL_CONTEXT ( 'NONE', #68, 'mechanical' ) ;
#127 = APPROVAL_PERSON_ORGANIZATION ( #176, #232, #268 ) ;
#128 = AXIS2_PLACEMENT_3D ( 'NONE', #193, #96, #226 ) ;
#129 = VERTEX_POINT ( 'NONE', #1 ) ;
#130 = AXIS2_PLACEMENT_3D ( 'NONE', #293, #104, #122 ) ;
#131 = PERSON_AND_ORGANIZATION ( #247, #156 ) ;
#132 = PERSON_AND_ORGANIZATION ( #247, #156 ) ;
#133 = ORIENTED_EDGE ( 'NONE', *, *, #15, .T. ) ;
#134 = AXIS2_PLACEMENT_3D ( 'NONE', #87, #72, #273 ) ;
#135 = PERSON_AND_ORGANIZATION ( #247, #156 ) ;
#136 = ORIENTED_EDGE ( 'NONE', *, *, #269, .T. ) ;
#137 = VERTEX_POINT ( 'NONE', #183 ) ;
#138 = MANIFOLD_SOLID_BREP ( '4276-001-1-solid1', #50 ) ;
#139 = CARTESIAN_POINT ( 'NONE',  ( -1.200000000000000000, 0.0000000000000000000, -6.100000000000002300 ) ) ;
#140 = LOCAL_TIME ( 10, 20, 18.00000000000000000, #213 ) ;
#141 = CALENDAR_DATE ( 2015, 29, 5 ) ;
#142 = ORIENTED_EDGE ( 'NONE', *, *, #54, .T. ) ;
#143 = ORIENTED_EDGE ( 'NONE', *, *, #38, .F. ) ;
#144 = AXIS2_PLACEMENT_3D ( 'NONE', #197, #163, #291 ) ;
#145 = CC_DESIGN_APPROVAL ( #43, ( #106 ) ) ;
#146 = APPROVAL_STATUS ( 'not_yet_approved' ) ;
#147 = EDGE_LOOP ( 'NONE', ( #295, #82, #115, #301 ) ) ;
#148 = ORIENTED_EDGE ( 'NONE', *, *, #88, .T. ) ;
#149 = EDGE_CURVE ( 'NONE', #123, #246, #255, .T. ) ;
#150 = DIRECTION ( 'NONE',  ( -1.000000000000000000, -0.0000000000000000000, -0.0000000000000000000 ) ) ;
#151 = DATE_AND_TIME ( #220, #152 ) ;
#152 = LOCAL_TIME ( 10, 20, 18.00000000000000000, #113 ) ;
#153 = DIRECTION ( 'NONE',  ( -0.7699660419090654800, 7.814285868970841000E-017, -0.6380848645022753100 ) ) ;
#154 = DIRECTION ( 'NONE',  ( 0.0000000000000000000, 0.0000000000000000000, 1.000000000000000000 ) ) ;
#155 = DATE_TIME_ROLE ( 'classification_date' ) ;
#156 = ORGANIZATION ( 'UNSPECIFIED', 'UNSPECIFIED', '' ) ;
#157 = AXIS2_PLACEMENT_3D ( 'NONE', #172, #234, #47 ) ;
#158 = SHAPE_DEFINITION_REPRESENTATION ( #248, #116 ) ;
#159 = ORIENTED_EDGE ( 'NONE', *, *, #200, .F. ) ;
#160 = CARTESIAN_POINT ( 'NONE',  ( -1.200000000000000000, 0.0000000000000000000, 0.0000000000000000000 ) ) ;
#161 = PERSON_AND_ORGANIZATION ( #247, #156 ) ;
#162 = AXIS2_PLACEMENT_3D ( 'NONE', #22, #124, #225 ) ;
#163 = DIRECTION ( 'NONE',  ( -1.000000000000000000, -0.0000000000000000000, -0.0000000000000000000 ) ) ;
#164 = DIRECTION ( 'NONE',  ( 0.0000000000000000000, 0.0000000000000000000, -1.000000000000000000 ) ) ;
#165 = ORIENTED_EDGE ( 'NONE', *, *, #167, .T. ) ;
#166 = APPROVAL_PERSON_ORGANIZATION ( #161, #207, #257 ) ;
#167 = EDGE_CURVE ( 'NONE', #41, #129, #179, .T. ) ;
#168 = CIRCLE ( 'NONE', #4, 6.105246135088871800 ) ;
#169 = DIRECTION ( 'NONE',  ( 1.000000000000000000, 0.0000000000000000000, 0.0000000000000000000 ) ) ;
#170 = DIRECTION ( 'NONE',  ( 1.000000000000000000, 0.0000000000000000000, 0.0000000000000000000 ) ) ;
#171 = DIRECTION ( 'NONE',  ( 1.000000000000000000, 0.0000000000000000000, 0.0000000000000000000 ) ) ;
#172 = CARTESIAN_POINT ( 'NONE',  ( -33.29995374907974800, 0.0000000000000000000, -0.05649169282643259900 ) ) ;
#173 = DIRECTION ( 'NONE',  ( 0.0000000000000000000, 0.0000000000000000000, -1.000000000000000000 ) ) ;
#174 = DIRECTION ( 'NONE',  ( -1.000000000000000000, -0.0000000000000000000, -0.0000000000000000000 ) ) ;
#175 = CARTESIAN_POINT ( 'NONE',  ( -1.200000000000000000, 7.623426324692276200E-016, 6.100000000000002300 ) ) ;
#176 = PERSON_AND_ORGANIZATION ( #247, #156 ) ;
#177 = PERSON_AND_ORGANIZATION ( #247, #156 ) ;
#178 = EDGE_LOOP ( 'NONE', ( #195, #209, #281, #25 ) ) ;
#179 = CIRCLE ( 'NONE', #162, 6.350000000000000500 ) ;
#180 = FACE_OUTER_BOUND ( 'NONE', #12, .T. ) ;
#181 = ADVANCED_FACE ( 'NONE', ( #267 ), #77, .T. ) ;
#182 = CALENDAR_DATE ( 2015, 29, 5 ) ;
#183 = CARTESIAN_POINT ( 'NONE',  ( 1.200000000000000000, 0.0000000000000000000, 0.0000000000000000000 ) ) ;
#184 = EDGE_CURVE ( 'NONE', #223, #64, #168, .T. ) ;
#185 = LOCAL_TIME ( 10, 20, 18.00000000000000000, #216 ) ;
#186 = EDGE_LOOP ( 'NONE', ( #235, #142, #159, #191 ) ) ;
#187 = ORIENTED_EDGE ( 'NONE', *, *, #289, .F. ) ;
#188 = APPROVAL_DATE_TIME ( #120, #43 ) ;
#189 = AXIS2_PLACEMENT_3D ( 'NONE', #63, #53, #8 ) ;
#190 = FACE_OUTER_BOUND ( 'NONE', #70, .T. ) ;
#191 = ORIENTED_EDGE ( 'NONE', *, *, #196, .F. ) ;
#192 = LINE ( 'NONE', #139, #97 ) ;
#193 = CARTESIAN_POINT ( 'NONE',  ( -1.200000000000000000, 0.0000000000000000000, 0.0000000000000000000 ) ) ;
#194 = SECURITY_CLASSIFICATION_LEVEL ( 'unclassified' ) ;
#195 = ORIENTED_EDGE ( 'NONE', *, *, #149, .F. ) ;
#196 = EDGE_CURVE ( 'NONE', #64, #129, #251, .T. ) ;
#197 = CARTESIAN_POINT ( 'NONE',  ( 0.3500000000000030900, 0.0000000000000000000, 0.0000000000000000000 ) ) ;
#198 = COORDINATED_UNIVERSAL_TIME_OFFSET ( 5, 0, .BEHIND. ) ;
#199 = CIRCLE ( 'NONE', #211, 6.100000000000002300 ) ;
#200 = EDGE_CURVE ( 'NONE', #129, #41, #239, .T. ) ;
#201 = CALENDAR_DATE ( 2015, 29, 5 ) ;
#202 = PERSON_AND_ORGANIZATION ( #247, #156 ) ;
#203 = ORIENTED_EDGE ( 'NONE', *, *, #184, .T. ) ;
#204 = CARTESIAN_POINT ( 'NONE',  ( -0.9500000000000022900, 0.0000000000000000000, 0.0000000000000000000 ) ) ;
#205 = CC_DESIGN_PERSON_AND_ORGANIZATION_ASSIGNMENT ( #206, #60, ( #9 ) ) ;
#206 = PERSON_AND_ORGANIZATION ( #247, #156 ) ;
#207 = APPROVAL ( #35, 'UNSPECIFIED' ) ;
#208 = CALENDAR_DATE ( 2015, 29, 5 ) ;
#209 = ORIENTED_EDGE ( 'NONE', *, *, #230, .F. ) ;
#210 = PRODUCT_RELATED_PRODUCT_CATEGORY ( 'detail', '', ( #9 ) ) ;
#211 = AXIS2_PLACEMENT_3D ( 'NONE', #160, #48, #236 ) ;
#212 = DIRECTION ( 'NONE',  ( -1.000000000000000000, -0.0000000000000000000, -0.0000000000000000000 ) ) ;
#213 = COORDINATED_UNIVERSAL_TIME_OFFSET ( 5, 0, .BEHIND. ) ;
#214 = AXIS2_PLACEMENT_3D ( 'NONE', #258, #85, #99 ) ;
#215 = DATE_TIME_ROLE ( 'creation_date' ) ;
#216 = COORDINATED_UNIVERSAL_TIME_OFFSET ( 5, 0, .BEHIND. ) ;
#217 = CYLINDRICAL_SURFACE ( 'NONE', #214, 6.350000000000000500 ) ;
#218 = CARTESIAN_POINT ( 'NONE',  ( 0.3500000000000030900, 0.0000000000000000000, 0.0000000000000000000 ) ) ;
#219 = CARTESIAN_POINT ( 'NONE',  ( 0.3500000000000030900, 7.776507174585693100E-016, -6.350000000000000500 ) ) ;
#220 = CALENDAR_DATE ( 2015, 29, 5 ) ;
#221 = EDGE_LOOP ( 'NONE', ( #265, #136, #297 ) ) ;
#222 = CYLINDRICAL_SURFACE ( 'NONE', #20, 6.350000000000000500 ) ;
#223 = VERTEX_POINT ( 'NONE', #92 ) ;
#224 = DIRECTION ( 'NONE',  ( 0.0000000000000000000, 0.0000000000000000000, 1.000000000000000000 ) ) ;
#225 = DIRECTION ( 'NONE',  ( 0.0000000000000000000, 0.0000000000000000000, 1.000000000000000000 ) ) ;
#226 = DIRECTION ( 'NONE',  ( 0.0000000000000000000, 0.0000000000000000000, -1.000000000000000000 ) ) ;
#227 = APPLICATION_PROTOCOL_DEFINITION ( 'international standard', 'config_control_design', 1994, #5 ) ;
#228 = DIRECTION ( 'NONE',  ( 0.0000000000000000000, 0.0000000000000000000, 1.000000000000000000 ) ) ;
#229 = CIRCLE ( 'NONE', #157, 34.50000000000000000 ) ;
#230 = EDGE_CURVE ( 'NONE', #45, #123, #280, .T. ) ;
#231 = PRODUCT_DEFINITION_FORMATION_WITH_SPECIFIED_SOURCE ( 'ANY', '', #9, .NOT_KNOWN. ) ;
#232 = APPROVAL ( #146, 'UNSPECIFIED' ) ;
#233 = APPROVAL_DATE_TIME ( #151, #207 ) ;
#234 = DIRECTION ( 'NONE',  ( 0.0000000000000000000, -1.000000000000000000, 0.0000000000000000000 ) ) ;
#235 = ORIENTED_EDGE ( 'NONE', *, *, #184, .F. ) ;
#236 = DIRECTION ( 'NONE',  ( 0.0000000000000000000, 0.0000000000000000000, -1.000000000000000000 ) ) ;
#237 = AXIS2_PLACEMENT_3D ( 'NONE', #218, #31, #228 ) ;
#238 = EDGE_CURVE ( 'NONE', #64, #223, #76, .T. ) ;
#239 = CIRCLE ( 'NONE', #93, 6.350000000000000500 ) ;
#240 = ORIENTED_EDGE ( 'NONE', *, *, #289, .T. ) ;
#241 = DIRECTION ( 'NONE',  ( -1.000000000000000000, -0.0000000000000000000, -0.0000000000000000000 ) ) ;
#242 = CIRCLE ( 'NONE', #244, 34.50000000000000000 ) ;
#243 = CIRCLE ( 'NONE', #110, 6.350000000000000500 ) ;
#244 = AXIS2_PLACEMENT_3D ( 'NONE', #288, #74, #89 ) ;
#245 = VECTOR ( 'NONE', #26, 1000.000000000000100 ) ;
#246 = VERTEX_POINT ( 'NONE', #111 ) ;
#247 = PERSON ( 'UNSPECIFIED', 'UNSPECIFIED', 'UNSPECIFIED', ('UNSPECIFIED'), ('UNSPECIFIED'), ('UNSPECIFIED') ) ;
#248 = PRODUCT_DEFINITION_SHAPE ( 'NONE', 'NONE',  #106 ) ;
#249 = FACE_OUTER_BOUND ( 'NONE', #221, .T. ) ;
#250 = CARTESIAN_POINT ( 'NONE',  ( 0.6453402832310890500, 0.0000000000000000000, 6.105246135088874500 ) ) ;
#251 = LINE ( 'NONE', #58, #245 ) ;
#252 = AXIS2_PLACEMENT_3D ( 'NONE', #204, #170, #164 ) ;
#253 = DIRECTION ( 'NONE',  ( 0.7071067811865463500, 8.659560562354950100E-017, 0.7071067811865487900 ) ) ;
#254 = AXIS2_PLACEMENT_3D ( 'NONE', #3, #169, #173 ) ;
#255 = LINE ( 'NONE', #94, #274 ) ;
#256 = EDGE_LOOP ( 'NONE', ( #42, #148, #203 ) ) ;
#257 = APPROVAL_ROLE ( '' ) ;
#258 = CARTESIAN_POINT ( 'NONE',  ( -1.200000000000000000, 0.0000000000000000000, 0.0000000000000000000 ) ) ;
#259 = FACE_OUTER_BOUND ( 'NONE', #178, .T. ) ;
#260 = VECTOR ( 'NONE', #153, 1000.000000000000100 ) ;
#261 = ORIENTED_EDGE ( 'NONE', *, *, #15, .F. ) ;
#262 = CC_DESIGN_PERSON_AND_ORGANIZATION_ASSIGNMENT ( #131, #62, ( #231 ) ) ;
#263 = ADVANCED_FACE ( 'NONE', ( #81 ), #286, .F. ) ;
#264 = CONICAL_SURFACE ( 'NONE', #254, 6.100000000000002300, 0.7853981633974500600 ) ;
#265 = ORIENTED_EDGE ( 'NONE', *, *, #88, .F. ) ;
#266 = CC_DESIGN_PERSON_AND_ORGANIZATION_ASSIGNMENT ( #135, #102, ( #6 ) ) ;
#267 = FACE_OUTER_BOUND ( 'NONE', #65, .T. ) ;
#268 = APPROVAL_ROLE ( '' ) ;
#269 = EDGE_CURVE ( 'NONE', #137, #64, #229, .T. ) ;
#270 = TOROIDAL_SURFACE ( 'NONE', #28, -0.05649169282643259900, 34.50000000000000000 ) ;
#271 = CARTESIAN_POINT ( 'NONE',  ( -1.200000000000000000, 0.0000000000000000000, -6.100000000000002300 ) ) ;
#272 = CARTESIAN_POINT ( 'NONE',  ( 0.0000000000000000000, 0.0000000000000000000, 0.0000000000000000000 ) ) ;
#273 = DIRECTION ( 'NONE',  ( 0.0000000000000000000, 0.0000000000000000000, -1.000000000000000000 ) ) ;
#274 = VECTOR ( 'NONE', #253, 1000.000000000000000 ) ;
#275 = DIRECTION ( 'NONE',  ( 0.0000000000000000000, 0.0000000000000000000, 1.000000000000000000 ) ) ;
#276 = CARTESIAN_POINT ( 'NONE',  ( -1.200000000000000000, 7.776507174585693100E-016, -6.350000000000000500 ) ) ;
#277 = DIRECTION ( 'NONE',  ( 0.0000000000000000000, 0.0000000000000000000, 1.000000000000000000 ) ) ;
#278 = CARTESIAN_POINT ( 'NONE',  ( -1.200000000000000000, 0.0000000000000000000, 0.0000000000000000000 ) ) ;
#279 = CC_DESIGN_DATE_AND_TIME_ASSIGNMENT ( #125, #215, ( #106 ) ) ;
#280 = CIRCLE ( 'NONE', #130, 6.100000000000002300 ) ;
#281 = ORIENTED_EDGE ( 'NONE', *, *, #19, .T. ) ;
#282 = ORIENTED_EDGE ( 'NONE', *, *, #296, .T. ) ;
#283 = AXIS2_PLACEMENT_3D ( 'NONE', #285, #241, #18 ) ;
#284 = CARTESIAN_POINT ( 'NONE',  ( 0.6453402832310856100, 0.0000000000000000000, 0.0000000000000000000 ) ) ;
#285 = CARTESIAN_POINT ( 'NONE',  ( -33.29995374907974800, 0.0000000000000000000, 0.0000000000000000000 ) ) ;
#286 = PLANE ( 'NONE',  #134 ) ;
#287 = CONICAL_SURFACE ( 'NONE', #144, 6.350000000000000500, 0.6920083956041451800 ) ;
#288 = CARTESIAN_POINT ( 'NONE',  ( -33.29995374907974800, -6.918237079830618500E-018, 0.05649169282643259900 ) ) ;
#289 = EDGE_CURVE ( 'NONE', #129, #246, #84, .T. ) ;
#290 = ADVANCED_FACE ( 'NONE', ( #190 ), #222, .T. ) ;
#291 = DIRECTION ( 'NONE',  ( 0.0000000000000000000, 0.0000000000000000000, 1.000000000000000000 ) ) ;
#292 = CC_DESIGN_DATE_AND_TIME_ASSIGNMENT ( #69, #155, ( #6 ) ) ;
#293 = CARTESIAN_POINT ( 'NONE',  ( -1.200000000000000000, 0.0000000000000000000, 0.0000000000000000000 ) ) ;
#294 = FACE_OUTER_BOUND ( 'NONE', #256, .T. ) ;
#295 = ORIENTED_EDGE ( 'NONE', *, *, #54, .F. ) ;
#296 = EDGE_CURVE ( 'NONE', #41, #33, #95, .T. ) ;
#297 = ORIENTED_EDGE ( 'NONE', *, *, #238, .T. ) ;
#298 =( GEOMETRIC_REPRESENTATION_CONTEXT ( 3 ) GLOBAL_UNCERTAINTY_ASSIGNED_CONTEXT ( ( #49 ) ) GLOBAL_UNIT_ASSIGNED_CONTEXT ( ( #119, #46, #71 ) ) REPRESENTATION_CONTEXT ( 'NONE', 'WORKASPACE' ) );
#299 = DIRECTION ( 'NONE',  ( 1.000000000000000000, 0.0000000000000000000, 0.0000000000000000000 ) ) ;
#300 = CIRCLE ( 'NONE', #252, 6.350000000000000500 ) ;
#301 = ORIENTED_EDGE ( 'NONE', *, *, #167, .F. ) ;
ENDSEC;
END-ISO-10303-21;
