ISO-10303-21;
HEADER;
FILE_DESCRIPTION (( 'STEP AP203' ),
    '1' );
FILE_NAME ('Web Model 14956_14969.step',
    '2020-07-27T18:26:44',
    ( '' ),
    ( '' ),
    'SwSTEP 2.0',
    'SolidWorks 2018',
    '' );
FILE_SCHEMA (( 'CONFIG_CONTROL_DESIGN' ));
ENDSEC;

DATA;
#1 = LOCAL_TIME ( 14, 26, 44.00000000000000000, #133 ) ;
#2 = CARTESIAN_POINT ( 'NONE',  ( -0.5000000000000000000, 0.0000000000000000000, 0.0000000000000000000 ) ) ;
#3 = ORIENTED_EDGE ( 'NONE', *, *, #100, .F. ) ;
#4 = CARTESIAN_POINT ( 'NONE',  ( 0.5000000000000000000, 6.123233995736766282E-16, -5.000000000000000000 ) ) ;
#5 = DIRECTION ( 'NONE',  ( 0.0000000000000000000, 0.0000000000000000000, -1.000000000000000000 ) ) ;
#6 = PERSON_AND_ORGANIZATION ( #28, #70 ) ;
#7 = DIRECTION ( 'NONE',  ( 1.000000000000000000, 0.0000000000000000000, 0.0000000000000000000 ) ) ;
#8 = DIRECTION ( 'NONE',  ( 1.000000000000000000, 0.0000000000000000000, 0.0000000000000000000 ) ) ;
#9 = EDGE_CURVE ( 'NONE', #81, #167, #84, .T. ) ;
#10 = ORIENTED_EDGE ( 'NONE', *, *, #78, .F. ) ;
#11 = AXIS2_PLACEMENT_3D ( 'NONE', #24, #25, #8 ) ;
#12 = APPROVAL_PERSON_ORGANIZATION ( #73, #57, #67 ) ;
#13 =( NAMED_UNIT ( * ) PLANE_ANGLE_UNIT ( ) SI_UNIT ( $, .RADIAN. ) );
#14 = LOCAL_TIME ( 14, 26, 44.00000000000000000, #110 ) ;
#15 = CC_DESIGN_DATE_AND_TIME_ASSIGNMENT ( #136, #83, ( #171 ) ) ;
#16 = LINE ( 'NONE', #4, #82 ) ;
#17 = APPROVAL_PERSON_ORGANIZATION ( #6, #115, #65 ) ;
#18 = EDGE_CURVE ( 'NONE', #27, #158, #117, .T. ) ;
#19 = FACE_OUTER_BOUND ( 'NONE', #46, .T. ) ;
#20 = CARTESIAN_POINT ( 'NONE',  ( 0.5000000000000000000, 0.0000000000000000000, 0.0000000000000000000 ) ) ;
#21 = DIRECTION ( 'NONE',  ( -1.000000000000000000, -0.0000000000000000000, -0.0000000000000000000 ) ) ;
#22 = CARTESIAN_POINT ( 'NONE',  ( 0.5000000000000000000, 0.0000000000000000000, 0.0000000000000000000 ) ) ;
#23 = DIRECTION ( 'NONE',  ( 1.000000000000000000, 0.0000000000000000000, 0.0000000000000000000 ) ) ;
#24 = CARTESIAN_POINT ( 'NONE',  ( 0.0000000000000000000, 0.0000000000000000000, 0.0000000000000000000 ) ) ;
#25 = DIRECTION ( 'NONE',  ( 0.0000000000000000000, 0.0000000000000000000, 1.000000000000000000 ) ) ;
#26 = PRODUCT ( 'Web Model 14956_14969', 'Web Model 14956_14969', '', ( #43 ) ) ;
#27 = VERTEX_POINT ( 'NONE', #44 ) ;
#28 = PERSON ( 'UNSPECIFIED', 'UNSPECIFIED', 'UNSPECIFIED', ('UNSPECIFIED'), ('UNSPECIFIED'), ('UNSPECIFIED') ) ;
#29 = SECURITY_CLASSIFICATION ( '', '', #162 ) ;
#30 = CALENDAR_DATE ( 2020, 27, 7 ) ;
#31 = CC_DESIGN_PERSON_AND_ORGANIZATION_ASSIGNMENT ( #147, #52, ( #171 ) ) ;
#32 = ORIENTED_EDGE ( 'NONE', *, *, #9, .F. ) ;
#33 = CALENDAR_DATE ( 2020, 27, 7 ) ;
#34 = DIRECTION ( 'NONE',  ( 0.0000000000000000000, 0.0000000000000000000, -1.000000000000000000 ) ) ;
#35 = ADVANCED_FACE ( 'NONE', ( #142 ), #126, .F. ) ;
#36 = DIRECTION ( 'NONE',  ( 0.0000000000000000000, 0.0000000000000000000, 1.000000000000000000 ) ) ;
#37 = CALENDAR_DATE ( 2020, 27, 7 ) ;
#38 = DIRECTION ( 'NONE',  ( 0.0000000000000000000, 0.0000000000000000000, -1.000000000000000000 ) ) ;
#39 = APPROVAL_DATE_TIME ( #173, #115 ) ;
#40 = APPLICATION_CONTEXT ( 'configuration controlled 3d designs of mechanical parts and assemblies' ) ;
#41 = ORIENTED_EDGE ( 'NONE', *, *, #9, .T. ) ;
#42 = PERSON_AND_ORGANIZATION_ROLE ( 'classification_officer' ) ;
#43 = MECHANICAL_CONTEXT ( 'NONE', #151, 'mechanical' ) ;
#44 = CARTESIAN_POINT ( 'NONE',  ( -0.5000000000000000000, 6.123233995736766282E-16, -5.000000000000000000 ) ) ;
#45 = CALENDAR_DATE ( 2020, 27, 7 ) ;
#46 = EDGE_LOOP ( 'NONE', ( #98, #32, #116, #86 ) ) ;
#47 = CYLINDRICAL_SURFACE ( 'NONE', #175, 5.000000000000000000 ) ;
#48 = ORIENTED_EDGE ( 'NONE', *, *, #103, .T. ) ;
#49 = CC_DESIGN_DATE_AND_TIME_ASSIGNMENT ( #159, #163, ( #29 ) ) ;
#50 = DIRECTION ( 'NONE',  ( 1.000000000000000000, 0.0000000000000000000, 0.0000000000000000000 ) ) ;
#51 = CARTESIAN_POINT ( 'NONE',  ( -0.5000000000000000000, 0.0000000000000000000, 5.000000000000000000 ) ) ;
#52 = PERSON_AND_ORGANIZATION_ROLE ( 'creator' ) ;
#53 = ORIENTED_EDGE ( 'NONE', *, *, #18, .T. ) ;
#54 = APPROVAL_STATUS ( 'not_yet_approved' ) ;
#55 =( GEOMETRIC_REPRESENTATION_CONTEXT ( 3 ) GLOBAL_UNCERTAINTY_ASSIGNED_CONTEXT ( ( #72 ) ) GLOBAL_UNIT_ASSIGNED_CONTEXT ( ( #161, #13, #150 ) ) REPRESENTATION_CONTEXT ( 'NONE', 'WORKASPACE' ) );
#56 = VECTOR ( 'NONE', #21, 1000.000000000000000 ) ;
#57 = APPROVAL ( #54, 'UNSPECIFIED' ) ;
#58 = PRODUCT_DEFINITION_SHAPE ( 'NONE', 'NONE',  #171 ) ;
#59 = EDGE_LOOP ( 'NONE', ( #10, #140 ) ) ;
#60 = PERSON_AND_ORGANIZATION ( #28, #70 ) ;
#61 = DIRECTION ( 'NONE',  ( 1.000000000000000000, 0.0000000000000000000, 0.0000000000000000000 ) ) ;
#62 = PERSON_AND_ORGANIZATION ( #28, #70 ) ;
#63 = DIRECTION ( 'NONE',  ( -1.000000000000000000, -0.0000000000000000000, -0.0000000000000000000 ) ) ;
#64 = APPROVAL_ROLE ( '' ) ;
#65 = APPROVAL_ROLE ( '' ) ;
#66 = AXIS2_PLACEMENT_3D ( 'NONE', #95, #23, #5 ) ;
#67 = APPROVAL_ROLE ( '' ) ;
#68 = EDGE_CURVE ( 'NONE', #81, #158, #92, .T. ) ;
#69 = DATE_AND_TIME ( #156, #14 ) ;
#70 = ORGANIZATION ( 'UNSPECIFIED', 'UNSPECIFIED', '' ) ;
#71 = FACE_OUTER_BOUND ( 'NONE', #124, .T. ) ;
#72 = UNCERTAINTY_MEASURE_WITH_UNIT (LENGTH_MEASURE( 1.000000000000000082E-05 ), #161, 'distance_accuracy_value', 'NONE');
#73 = PERSON_AND_ORGANIZATION ( #28, #70 ) ;
#74 = CARTESIAN_POINT ( 'NONE',  ( 0.5000000000000000000, 0.0000000000000000000, 5.000000000000000000 ) ) ;
#75 = AXIS2_PLACEMENT_3D ( 'NONE', #168, #63, #36 ) ;
#76 = DIRECTION ( 'NONE',  ( 0.0000000000000000000, 0.0000000000000000000, -1.000000000000000000 ) ) ;
#77 = DIRECTION ( 'NONE',  ( 1.000000000000000000, 0.0000000000000000000, 0.0000000000000000000 ) ) ;
#78 = EDGE_CURVE ( 'NONE', #158, #27, #99, .T. ) ;
#79 = PERSON_AND_ORGANIZATION_ROLE ( 'creator' ) ;
#80 = PERSON_AND_ORGANIZATION_ROLE ( 'design_owner' ) ;
#81 = VERTEX_POINT ( 'NONE', #132 ) ;
#82 = VECTOR ( 'NONE', #170, 1000.000000000000000 ) ;
#83 = DATE_TIME_ROLE ( 'creation_date' ) ;
#84 = CIRCLE ( 'NONE', #160, 5.000000000000000000 ) ;
#85 = SHAPE_DEFINITION_REPRESENTATION ( #58, #129 ) ;
#86 = ORIENTED_EDGE ( 'NONE', *, *, #78, .T. ) ;
#87 = CC_DESIGN_APPROVAL ( #139, ( #146 ) ) ;
#88 = LOCAL_TIME ( 14, 26, 44.00000000000000000, #94 ) ;
#89 = APPROVAL_PERSON_ORGANIZATION ( #102, #139, #64 ) ;
#90 = DIRECTION ( 'NONE',  ( 0.0000000000000000000, 0.0000000000000000000, -1.000000000000000000 ) ) ;
#91 = ADVANCED_FACE ( 'NONE', ( #121 ), #165, .T. ) ;
#92 = LINE ( 'NONE', #74, #56 ) ;
#93 = PLANE ( 'NONE',  #111 ) ;
#94 = COORDINATED_UNIVERSAL_TIME_OFFSET ( 5, 0, .BEHIND. ) ;
#95 = CARTESIAN_POINT ( 'NONE',  ( 0.5000000000000000000, 0.0000000000000000000, 0.0000000000000000000 ) ) ;
#96 = APPLICATION_PROTOCOL_DEFINITION ( 'international standard', 'config_control_design', 1994, #151 ) ;
#97 = CC_DESIGN_APPROVAL ( #57, ( #29 ) ) ;
#98 = ORIENTED_EDGE ( 'NONE', *, *, #103, .F. ) ;
#99 = CIRCLE ( 'NONE', #143, 5.000000000000000000 ) ;
#100 = EDGE_CURVE ( 'NONE', #167, #81, #130, .T. ) ;
#101 = PERSON_AND_ORGANIZATION ( #28, #70 ) ;
#102 = PERSON_AND_ORGANIZATION ( #28, #70 ) ;
#103 = EDGE_CURVE ( 'NONE', #167, #27, #16, .T. ) ;
#104 = DATE_AND_TIME ( #45, #145 ) ;
#105 = CC_DESIGN_SECURITY_CLASSIFICATION ( #29, ( #146 ) ) ;
#106 = LOCAL_TIME ( 14, 26, 44.00000000000000000, #141 ) ;
#107 = DIRECTION ( 'NONE',  ( 0.0000000000000000000, 0.0000000000000000000, 1.000000000000000000 ) ) ;
#108 = DIRECTION ( 'NONE',  ( 0.0000000000000000000, 0.0000000000000000000, -1.000000000000000000 ) ) ;
#109 = AXIS2_PLACEMENT_3D ( 'NONE', #2, #61, #90 ) ;
#110 = COORDINATED_UNIVERSAL_TIME_OFFSET ( 5, 0, .BEHIND. ) ;
#111 = AXIS2_PLACEMENT_3D ( 'NONE', #20, #7, #108 ) ;
#112 = APPROVAL_STATUS ( 'not_yet_approved' ) ;
#113 = MANIFOLD_SOLID_BREP ( 'Boss-Extrude1', #131 ) ;
#114 = CC_DESIGN_PERSON_AND_ORGANIZATION_ASSIGNMENT ( #101, #42, ( #29 ) ) ;
#115 = APPROVAL ( #125, 'UNSPECIFIED' ) ;
#116 = ORIENTED_EDGE ( 'NONE', *, *, #68, .T. ) ;
#117 = CIRCLE ( 'NONE', #109, 5.000000000000000000 ) ;
#118 = DESIGN_CONTEXT ( 'detailed design', #40, 'design' ) ;
#119 = CC_DESIGN_PERSON_AND_ORGANIZATION_ASSIGNMENT ( #60, #172, ( #146 ) ) ;
#120 = ADVANCED_FACE ( 'NONE', ( #19 ), #47, .T. ) ;
#121 = FACE_OUTER_BOUND ( 'NONE', #155, .T. ) ;
#122 = APPROVAL_DATE_TIME ( #69, #139 ) ;
#123 = DIRECTION ( 'NONE',  ( -1.000000000000000000, -0.0000000000000000000, -0.0000000000000000000 ) ) ;
#124 = EDGE_LOOP ( 'NONE', ( #41, #152 ) ) ;
#125 = APPROVAL_STATUS ( 'not_yet_approved' ) ;
#126 = PLANE ( 'NONE',  #153 ) ;
#127 = PERSON_AND_ORGANIZATION ( #28, #70 ) ;
#128 = CARTESIAN_POINT ( 'NONE',  ( -0.5000000000000000000, 0.0000000000000000000, 0.0000000000000000000 ) ) ;
#129 = ADVANCED_BREP_SHAPE_REPRESENTATION ( 'Web Model 14956_14969', ( #113, #11 ), #55 ) ;
#130 = CIRCLE ( 'NONE', #66, 5.000000000000000000 ) ;
#131 = CLOSED_SHELL ( 'NONE', ( #91, #120, #144, #35 ) ) ;
#132 = CARTESIAN_POINT ( 'NONE',  ( 0.5000000000000000000, 0.0000000000000000000, 5.000000000000000000 ) ) ;
#133 = COORDINATED_UNIVERSAL_TIME_OFFSET ( 5, 0, .BEHIND. ) ;
#134 = ORIENTED_EDGE ( 'NONE', *, *, #68, .F. ) ;
#135 = APPLICATION_PROTOCOL_DEFINITION ( 'international standard', 'config_control_design', 1994, #40 ) ;
#136 = DATE_AND_TIME ( #33, #106 ) ;
#137 = CARTESIAN_POINT ( 'NONE',  ( 0.5000000000000000000, 0.0000000000000000000, 0.0000000000000000000 ) ) ;
#138 = DIRECTION ( 'NONE',  ( 1.000000000000000000, 0.0000000000000000000, 0.0000000000000000000 ) ) ;
#139 = APPROVAL ( #112, 'UNSPECIFIED' ) ;
#140 = ORIENTED_EDGE ( 'NONE', *, *, #18, .F. ) ;
#141 = COORDINATED_UNIVERSAL_TIME_OFFSET ( 5, 0, .BEHIND. ) ;
#142 = FACE_OUTER_BOUND ( 'NONE', #59, .T. ) ;
#143 = AXIS2_PLACEMENT_3D ( 'NONE', #148, #77, #38 ) ;
#144 = ADVANCED_FACE ( 'NONE', ( #71 ), #93, .T. ) ;
#145 = LOCAL_TIME ( 14, 26, 44.00000000000000000, #166 ) ;
#146 = PRODUCT_DEFINITION_FORMATION_WITH_SPECIFIED_SOURCE ( 'ANY', '', #26, .NOT_KNOWN. ) ;
#147 = PERSON_AND_ORGANIZATION ( #28, #70 ) ;
#148 = CARTESIAN_POINT ( 'NONE',  ( -0.5000000000000000000, 0.0000000000000000000, 0.0000000000000000000 ) ) ;
#149 = CC_DESIGN_PERSON_AND_ORGANIZATION_ASSIGNMENT ( #62, #79, ( #146 ) ) ;
#150 =( NAMED_UNIT ( * ) SI_UNIT ( $, .STERADIAN. ) SOLID_ANGLE_UNIT ( ) );
#151 = APPLICATION_CONTEXT ( 'configuration controlled 3d designs of mechanical parts and assemblies' ) ;
#152 = ORIENTED_EDGE ( 'NONE', *, *, #100, .T. ) ;
#153 = AXIS2_PLACEMENT_3D ( 'NONE', #128, #50, #76 ) ;
#154 = PRODUCT_RELATED_PRODUCT_CATEGORY ( 'detail', '', ( #26 ) ) ;
#155 = EDGE_LOOP ( 'NONE', ( #3, #48, #53, #134 ) ) ;
#156 = CALENDAR_DATE ( 2020, 27, 7 ) ;
#157 = CC_DESIGN_PERSON_AND_ORGANIZATION_ASSIGNMENT ( #127, #80, ( #26 ) ) ;
#158 = VERTEX_POINT ( 'NONE', #51 ) ;
#159 = DATE_AND_TIME ( #30, #88 ) ;
#160 = AXIS2_PLACEMENT_3D ( 'NONE', #137, #138, #34 ) ;
#161 =( LENGTH_UNIT ( ) NAMED_UNIT ( * ) SI_UNIT ( .MILLI., .METRE. ) );
#162 = SECURITY_CLASSIFICATION_LEVEL ( 'unclassified' ) ;
#163 = DATE_TIME_ROLE ( 'classification_date' ) ;
#164 = CC_DESIGN_APPROVAL ( #115, ( #171 ) ) ;
#165 = CYLINDRICAL_SURFACE ( 'NONE', #75, 5.000000000000000000 ) ;
#166 = COORDINATED_UNIVERSAL_TIME_OFFSET ( 5, 0, .BEHIND. ) ;
#167 = VERTEX_POINT ( 'NONE', #174 ) ;
#168 = CARTESIAN_POINT ( 'NONE',  ( 0.5000000000000000000, 0.0000000000000000000, 0.0000000000000000000 ) ) ;
#169 = APPROVAL_DATE_TIME ( #104, #57 ) ;
#170 = DIRECTION ( 'NONE',  ( -1.000000000000000000, -0.0000000000000000000, -0.0000000000000000000 ) ) ;
#171 = PRODUCT_DEFINITION ( 'UNKNOWN', '', #146, #118 ) ;
#172 = PERSON_AND_ORGANIZATION_ROLE ( 'design_supplier' ) ;
#173 = DATE_AND_TIME ( #37, #1 ) ;
#174 = CARTESIAN_POINT ( 'NONE',  ( 0.5000000000000000000, 6.123233995736766282E-16, -5.000000000000000000 ) ) ;
#175 = AXIS2_PLACEMENT_3D ( 'NONE', #22, #123, #107 ) ;
ENDSEC;
END-ISO-10303-21;
