ISO-10303-21;
HEADER;
FILE_DESCRIPTION (( 'STEP AP203' ),
    '1' );
FILE_NAME ('4295-E0W.STEP',
    '2015-05-29T14:24:18',
    ( 'admin' ),
    ( '' ),
    'SwSTEP 2.0',
    'SolidWorks 2014',
    '' );
FILE_SCHEMA (( 'CONFIG_CONTROL_DESIGN' ));
ENDSEC;

DATA;
#1 = CARTESIAN_POINT ( 'NONE',  ( -65.09990551005249400, 0.0000000000000000000, 0.0000000000000000000 ) ) ;
#2 = VERTEX_POINT ( 'NONE', #43 ) ;
#3 = DIRECTION ( 'NONE',  ( 1.000000000000000000, 0.0000000000000000000, 0.0000000000000000000 ) ) ;
#4 = CC_DESIGN_PERSON_AND_ORGANIZATION_ASSIGNMENT ( #80, #248, ( #154 ) ) ;
#5 = PERSON_AND_ORGANIZATION ( #184, #20 ) ;
#6 = ADVANCED_FACE ( 'NONE', ( #141 ), #78, .T. ) ;
#7 = EDGE_CURVE ( 'NONE', #156, #134, #259, .T. ) ;
#8 = DIRECTION ( 'NONE',  ( 0.0000000000000000000, 0.0000000000000000000, 1.000000000000000000 ) ) ;
#9 = ORIENTED_EDGE ( 'NONE', *, *, #210, .F. ) ;
#10 = ORIENTED_EDGE ( 'NONE', *, *, #220, .T. ) ;
#11 = CC_DESIGN_DATE_AND_TIME_ASSIGNMENT ( #90, #44, ( #241 ) ) ;
#12 = DIRECTION ( 'NONE',  ( 0.0000000000000000000, 0.0000000000000000000, 1.000000000000000000 ) ) ;
#13 = EDGE_CURVE ( 'NONE', #179, #53, #272, .T. ) ;
#14 = CALENDAR_DATE ( 2015, 29, 5 ) ;
#15 = DIRECTION ( 'NONE',  ( -1.000000000000000000, -0.0000000000000000000, -0.0000000000000000000 ) ) ;
#16 = ORIENTED_EDGE ( 'NONE', *, *, #230, .F. ) ;
#17 = DESIGN_CONTEXT ( 'detailed design', #273, 'design' ) ;
#18 = EDGE_LOOP ( 'NONE', ( #292, #217, #34, #142 ) ) ;
#19 = ORIENTED_EDGE ( 'NONE', *, *, #210, .T. ) ;
#20 = ORGANIZATION ( 'UNSPECIFIED', 'UNSPECIFIED', '' ) ;
#21 = PERSON_AND_ORGANIZATION ( #184, #20 ) ;
#22 = CIRCLE ( 'NONE', #261, 25.16784215270037000 ) ;
#23 = CARTESIAN_POINT ( 'NONE',  ( -0.8090463762408517400, 0.0000000000000000000, 0.0000000000000000000 ) ) ;
#24 = CARTESIAN_POINT ( 'NONE',  ( -1.150000000000456200, 0.0000000000000000000, 0.0000000000000000000 ) ) ;
#25 = APPROVAL_ROLE ( '' ) ;
#26 = CARTESIAN_POINT ( 'NONE',  ( -3.899999999999999900, 0.0000000000000000000, -25.14999999999999100 ) ) ;
#27 = TOROIDAL_SURFACE ( 'NONE', #199, 0.1141910847144884900, 69.00000000000000000 ) ;
#28 = EDGE_LOOP ( 'NONE', ( #213, #238 ) ) ;
#29 = AXIS2_PLACEMENT_3D ( 'NONE', #40, #87, #157 ) ;
#30 = CARTESIAN_POINT ( 'NONE',  ( -1.150000000000456200, 0.0000000000000000000, 0.0000000000000000000 ) ) ;
#31 = CARTESIAN_POINT ( 'NONE',  ( -3.899999999999999900, 0.0000000000000000000, 0.0000000000000000000 ) ) ;
#32 = AXIS2_PLACEMENT_3D ( 'NONE', #126, #275, #266 ) ;
#33 = ORIENTED_EDGE ( 'NONE', *, *, #150, .F. ) ;
#34 = ORIENTED_EDGE ( 'NONE', *, *, #113, .T. ) ;
#35 = EDGE_CURVE ( 'NONE', #127, #2, #245, .T. ) ;
#36 = APPROVAL_PERSON_ORGANIZATION ( #191, #147, #69 ) ;
#37 = CARTESIAN_POINT ( 'NONE',  ( -1.150000000000456200, 3.110602869834276500E-015, -25.39999999999999500 ) ) ;
#38 = ORIENTED_EDGE ( 'NONE', *, *, #181, .F. ) ;
#39 = FACE_OUTER_BOUND ( 'NONE', #28, .T. ) ;
#40 = CARTESIAN_POINT ( 'NONE',  ( -65.09990551005249400, 0.0000000000000000000, 0.1141910847144884900 ) ) ;
#41 = VECTOR ( 'NONE', #258, 1000.000000000000000 ) ;
#42 = LOCAL_TIME ( 10, 24, 18.00000000000000000, #116 ) ;
#43 = CARTESIAN_POINT ( 'NONE',  ( -0.8090463762408517400, 0.0000000000000000000, 25.16784215270034900 ) ) ;
#44 = DATE_TIME_ROLE ( 'creation_date' ) ;
#45 = VECTOR ( 'NONE', #104, 1000.000000000000000 ) ;
#46 = CIRCLE ( 'NONE', #29, 69.00000000000000000 ) ;
#47 = PERSON_AND_ORGANIZATION ( #184, #20 ) ;
#48 = AXIS2_PLACEMENT_3D ( 'NONE', #190, #111, #128 ) ;
#49 = LOCAL_TIME ( 10, 24, 18.00000000000000000, #148 ) ;
#50 = AXIS2_PLACEMENT_3D ( 'NONE', #30, #103, #8 ) ;
#51 = DIRECTION ( 'NONE',  ( 1.000000000000000000, 0.0000000000000000000, 0.0000000000000000000 ) ) ;
#52 = ORIENTED_EDGE ( 'NONE', *, *, #35, .F. ) ;
#53 = VERTEX_POINT ( 'NONE', #118 ) ;
#54 = DATE_AND_TIME ( #14, #49 ) ;
#55 = ADVANCED_FACE ( 'NONE', ( #39 ), #112, .F. ) ;
#56 = AXIS2_PLACEMENT_3D ( 'NONE', #23, #242, #166 ) ;
#57 = CC_DESIGN_PERSON_AND_ORGANIZATION_ASSIGNMENT ( #5, #138, ( #263 ) ) ;
#58 = CIRCLE ( 'NONE', #284, 25.39999999999999500 ) ;
#59 = ORIENTED_EDGE ( 'NONE', *, *, #150, .T. ) ;
#60 = MANIFOLD_SOLID_BREP ( '4295-001-1-solid1', #206 ) ;
#61 = PERSON_AND_ORGANIZATION_ROLE ( 'creator' ) ;
#62 = FACE_OUTER_BOUND ( 'NONE', #74, .T. ) ;
#63 = ORIENTED_EDGE ( 'NONE', *, *, #113, .F. ) ;
#64 = CIRCLE ( 'NONE', #196, 25.39999999999999500 ) ;
#65 = AXIS2_PLACEMENT_3D ( 'NONE', #260, #131, #229 ) ;
#66 = APPLICATION_CONTEXT ( 'configuration controlled 3d designs of mechanical parts and assemblies' ) ;
#67 = EDGE_CURVE ( 'NONE', #2, #231, #105, .T. ) ;
#68 = APPROVAL ( #158, 'UNSPECIFIED' ) ;
#69 = APPROVAL_ROLE ( '' ) ;
#70 = CARTESIAN_POINT ( 'NONE',  ( -3.899999999999999900, 3.110602869834276500E-015, -25.39999999999999500 ) ) ;
#71 = CIRCLE ( 'NONE', #234, 25.39999999999999500 ) ;
#72 = CALENDAR_DATE ( 2015, 29, 5 ) ;
#73 = ADVANCED_FACE ( 'NONE', ( #287 ), #297, .T. ) ;
#74 = EDGE_LOOP ( 'NONE', ( #188, #33, #268, #132 ) ) ;
#75 = CARTESIAN_POINT ( 'NONE',  ( -3.899999999999999900, 0.0000000000000000000, 0.0000000000000000000 ) ) ;
#76 = EDGE_CURVE ( 'NONE', #231, #179, #58, .T. ) ;
#77 = DATE_TIME_ROLE ( 'classification_date' ) ;
#78 = CYLINDRICAL_SURFACE ( 'NONE', #115, 25.39999999999999500 ) ;
#79 = DIRECTION ( 'NONE',  ( 0.0000000000000000000, 0.0000000000000000000, -1.000000000000000000 ) ) ;
#80 = PERSON_AND_ORGANIZATION ( #184, #20 ) ;
#81 = TOROIDAL_SURFACE ( 'NONE', #202, 0.1141910847144884900, 69.00000000000000000 ) ;
#82 = ADVANCED_BREP_SHAPE_REPRESENTATION ( '4295-E0W', ( #60, #186 ), #228 ) ;
#83 = LOCAL_TIME ( 10, 24, 18.00000000000000000, #165 ) ;
#84 = DIRECTION ( 'NONE',  ( 1.000000000000000000, 0.0000000000000000000, 0.0000000000000000000 ) ) ;
#85 = APPROVAL ( #290, 'UNSPECIFIED' ) ;
#86 = LINE ( 'NONE', #189, #274 ) ;
#87 = DIRECTION ( 'NONE',  ( 0.0000000000000000000, -1.000000000000000000, 0.0000000000000000000 ) ) ;
#88 = APPLICATION_PROTOCOL_DEFINITION ( 'international standard', 'config_control_design', 1994, #66 ) ;
#89 = LOCAL_TIME ( 10, 24, 18.00000000000000000, #192 ) ;
#90 = DATE_AND_TIME ( #94, #89 ) ;
#91 = DIRECTION ( 'NONE',  ( 0.0000000000000000000, 0.0000000000000000000, 1.000000000000000000 ) ) ;
#92 = ADVANCED_FACE ( 'NONE', ( #264 ), #279, .T. ) ;
#93 = VERTEX_POINT ( 'NONE', #301 ) ;
#94 = CALENDAR_DATE ( 2015, 29, 5 ) ;
#95 = DIRECTION ( 'NONE',  ( 0.0000000000000000000, 0.0000000000000000000, -1.000000000000000000 ) ) ;
#96 = ORIENTED_EDGE ( 'NONE', *, *, #235, .F. ) ;
#97 = APPROVAL_DATE_TIME ( #149, #68 ) ;
#98 = EDGE_CURVE ( 'NONE', #180, #2, #46, .T. ) ;
#99 = ORIENTED_EDGE ( 'NONE', *, *, #230, .T. ) ;
#100 = CONICAL_SURFACE ( 'NONE', #267, 25.14999999999999100, 0.7853981633974482800 ) ;
#101 = PERSON_AND_ORGANIZATION ( #184, #20 ) ;
#102 = ADVANCED_FACE ( 'NONE', ( #255 ), #27, .T. ) ;
#103 = DIRECTION ( 'NONE',  ( -1.000000000000000000, -0.0000000000000000000, -0.0000000000000000000 ) ) ;
#104 = DIRECTION ( 'NONE',  ( -0.8265775821942572500, 0.0000000000000000000, 0.5628227968143222300 ) ) ;
#105 = LINE ( 'NONE', #278, #45 ) ;
#106 = ORIENTED_EDGE ( 'NONE', *, *, #296, .F. ) ;
#107 = APPROVAL_PERSON_ORGANIZATION ( #21, #68, #256 ) ;
#108 = CARTESIAN_POINT ( 'NONE',  ( -1.150000000000456200, 0.0000000000000000000, 0.0000000000000000000 ) ) ;
#109 = EDGE_CURVE ( 'NONE', #179, #231, #224, .T. ) ;
#110 = EDGE_LOOP ( 'NONE', ( #16, #195, #59 ) ) ;
#111 = DIRECTION ( 'NONE',  ( -0.0000000000000000000, 1.000000000000000000, 1.224646799147353200E-016 ) ) ;
#112 = PLANE ( 'NONE',  #299 ) ;
#113 = EDGE_CURVE ( 'NONE', #231, #93, #139, .T. ) ;
#114 = ORIENTED_EDGE ( 'NONE', *, *, #13, .T. ) ;
#115 = AXIS2_PLACEMENT_3D ( 'NONE', #31, #204, #160 ) ;
#116 = COORDINATED_UNIVERSAL_TIME_OFFSET ( 5, 0, .BEHIND. ) ;
#117 =( NAMED_UNIT ( * ) SI_UNIT ( $, .STERADIAN. ) SOLID_ANGLE_UNIT ( ) );
#118 = CARTESIAN_POINT ( 'NONE',  ( -3.649999999999995900, 3.110602869834276500E-015, -25.39999999999999500 ) ) ;
#119 = CC_DESIGN_PERSON_AND_ORGANIZATION_ASSIGNMENT ( #125, #265, ( #263 ) ) ;
#120 = CALENDAR_DATE ( 2015, 29, 5 ) ;
#121 = CALENDAR_DATE ( 2015, 29, 5 ) ;
#122 = DIRECTION ( 'NONE',  ( 0.7071067811865474600, 8.659560562354932900E-017, 0.7071067811865474600 ) ) ;
#123 = DIRECTION ( 'NONE',  ( -1.000000000000000000, -0.0000000000000000000, -0.0000000000000000000 ) ) ;
#124 = DIRECTION ( 'NONE',  ( -1.000000000000000000, -0.0000000000000000000, -0.0000000000000000000 ) ) ;
#125 = PERSON_AND_ORGANIZATION ( #184, #20 ) ;
#126 = CARTESIAN_POINT ( 'NONE',  ( -3.899999999999999900, 0.0000000000000000000, 0.0000000000000000000 ) ) ;
#127 = VERTEX_POINT ( 'NONE', #216 ) ;
#128 = DIRECTION ( 'NONE',  ( 0.0000000000000000000, -1.224646799147353200E-016, 1.000000000000000000 ) ) ;
#129 = CONICAL_SURFACE ( 'NONE', #225, 25.39999999999999500, 0.5977968868486692700 ) ;
#130 = DIRECTION ( 'NONE',  ( 0.0000000000000000000, 0.0000000000000000000, 1.000000000000000000 ) ) ;
#131 = DIRECTION ( 'NONE',  ( -1.000000000000000000, -0.0000000000000000000, -0.0000000000000000000 ) ) ;
#132 = ORIENTED_EDGE ( 'NONE', *, *, #109, .F. ) ;
#133 = CARTESIAN_POINT ( 'NONE',  ( -3.899999999999999900, 3.079986699855592700E-015, 25.14999999999999100 ) ) ;
#134 = VERTEX_POINT ( 'NONE', #175 ) ;
#135 = SECURITY_CLASSIFICATION_LEVEL ( 'unclassified' ) ;
#136 = VECTOR ( 'NONE', #122, 1000.000000000000100 ) ;
#137 = AXIS2_PLACEMENT_3D ( 'NONE', #75, #84, #95 ) ;
#138 = PERSON_AND_ORGANIZATION_ROLE ( 'creator' ) ;
#139 = LINE ( 'NONE', #178, #201 ) ;
#140 = CC_DESIGN_DATE_AND_TIME_ASSIGNMENT ( #222, #77, ( #154 ) ) ;
#141 = FACE_OUTER_BOUND ( 'NONE', #18, .T. ) ;
#142 = ORIENTED_EDGE ( 'NONE', *, *, #296, .T. ) ;
#143 = APPROVAL_DATE_TIME ( #54, #85 ) ;
#144 = DIRECTION ( 'NONE',  ( 0.0000000000000000000, 0.0000000000000000000, 1.000000000000000000 ) ) ;
#145 = SHAPE_DEFINITION_REPRESENTATION ( #257, #82 ) ;
#146 = CARTESIAN_POINT ( 'NONE',  ( -3.899999999999999900, 0.0000000000000000000, 0.0000000000000000000 ) ) ;
#147 = APPROVAL ( #214, 'UNSPECIFIED' ) ;
#148 = COORDINATED_UNIVERSAL_TIME_OFFSET ( 5, 0, .BEHIND. ) ;
#149 = DATE_AND_TIME ( #120, #42 ) ;
#150 = EDGE_CURVE ( 'NONE', #2, #127, #22, .T. ) ;
#151 = FACE_OUTER_BOUND ( 'NONE', #221, .T. ) ;
#152 = LINE ( 'NONE', #133, #136 ) ;
#153 = COORDINATED_UNIVERSAL_TIME_OFFSET ( 5, 0, .BEHIND. ) ;
#154 = SECURITY_CLASSIFICATION ( '', '', #135 ) ;
#155 = ORIENTED_EDGE ( 'NONE', *, *, #67, .F. ) ;
#156 = VERTEX_POINT ( 'NONE', #26 ) ;
#157 = DIRECTION ( 'NONE',  ( 0.0000000000000000000, 0.0000000000000000000, -1.000000000000000000 ) ) ;
#158 = APPROVAL_STATUS ( 'not_yet_approved' ) ;
#159 = CC_DESIGN_APPROVAL ( #68, ( #154 ) ) ;
#160 = DIRECTION ( 'NONE',  ( 0.0000000000000000000, 0.0000000000000000000, 1.000000000000000000 ) ) ;
#161 = DIRECTION ( 'NONE',  ( 0.0000000000000000000, 0.0000000000000000000, 1.000000000000000000 ) ) ;
#162 = ORIENTED_EDGE ( 'NONE', *, *, #76, .T. ) ;
#163 = ORIENTED_EDGE ( 'NONE', *, *, #76, .F. ) ;
#164 = ADVANCED_FACE ( 'NONE', ( #62 ), #129, .T. ) ;
#165 = COORDINATED_UNIVERSAL_TIME_OFFSET ( 5, 0, .BEHIND. ) ;
#166 = DIRECTION ( 'NONE',  ( 0.0000000000000000000, 0.0000000000000000000, 1.000000000000000000 ) ) ;
#167 = DIRECTION ( 'NONE',  ( 1.000000000000000000, 0.0000000000000000000, 0.0000000000000000000 ) ) ;
#168 = ADVANCED_FACE ( 'NONE', ( #170 ), #100, .T. ) ;
#169 = MECHANICAL_CONTEXT ( 'NONE', #66, 'mechanical' ) ;
#170 = FACE_OUTER_BOUND ( 'NONE', #288, .T. ) ;
#171 = CIRCLE ( 'NONE', #276, 25.14999999999999100 ) ;
#172 = APPROVAL_PERSON_ORGANIZATION ( #47, #85, #25 ) ;
#173 = PERSON_AND_ORGANIZATION ( #184, #20 ) ;
#174 = ADVANCED_FACE ( 'NONE', ( #269 ), #198, .T. ) ;
#175 = CARTESIAN_POINT ( 'NONE',  ( -3.899999999999999900, 3.095294784844934600E-015, 25.14999999999999100 ) ) ;
#176 = DIRECTION ( 'NONE',  ( 0.0000000000000000000, 0.0000000000000000000, -1.000000000000000000 ) ) ;
#177 = ORIENTED_EDGE ( 'NONE', *, *, #7, .F. ) ;
#178 = CARTESIAN_POINT ( 'NONE',  ( -3.899999999999999900, 0.0000000000000000000, 25.39999999999999500 ) ) ;
#179 = VERTEX_POINT ( 'NONE', #37 ) ;
#180 = VERTEX_POINT ( 'NONE', #253 ) ;
#181 = EDGE_CURVE ( 'NONE', #53, #93, #71, .T. ) ;
#182 = EDGE_CURVE ( 'NONE', #134, #156, #171, .T. ) ;
#183 = CARTESIAN_POINT ( 'NONE',  ( -3.899999999999999900, 0.0000000000000000000, 0.0000000000000000000 ) ) ;
#184 = PERSON ( 'UNSPECIFIED', 'UNSPECIFIED', 'UNSPECIFIED', ('UNSPECIFIED'), ('UNSPECIFIED'), ('UNSPECIFIED') ) ;
#185 = CC_DESIGN_SECURITY_CLASSIFICATION ( #154, ( #263 ) ) ;
#186 = AXIS2_PLACEMENT_3D ( 'NONE', #289, #286, #3 ) ;
#187 = CARTESIAN_POINT ( 'NONE',  ( -3.649999999999995900, 0.0000000000000000000, 0.0000000000000000000 ) ) ;
#188 = ORIENTED_EDGE ( 'NONE', *, *, #220, .F. ) ;
#189 = CARTESIAN_POINT ( 'NONE',  ( -1.150000000000456200, 3.110602869834276500E-015, -25.39999999999999500 ) ) ;
#190 = CARTESIAN_POINT ( 'NONE',  ( -65.09990551005249400, 1.398437463867626100E-017, -0.1141910847144884900 ) ) ;
#191 = PERSON_AND_ORGANIZATION ( #184, #20 ) ;
#192 = COORDINATED_UNIVERSAL_TIME_OFFSET ( 5, 0, .BEHIND. ) ;
#193 = CARTESIAN_POINT ( 'NONE',  ( -65.09990551005249400, 0.0000000000000000000, 0.0000000000000000000 ) ) ;
#194 = EDGE_LOOP ( 'NONE', ( #162, #114, #207, #63 ) ) ;
#195 = ORIENTED_EDGE ( 'NONE', *, *, #98, .T. ) ;
#196 = AXIS2_PLACEMENT_3D ( 'NONE', #285, #280, #79 ) ;
#197 = DIRECTION ( 'NONE',  ( -1.000000000000000000, -0.0000000000000000000, -0.0000000000000000000 ) ) ;
#198 = CONICAL_SURFACE ( 'NONE', #50, 25.39999999999999500, 0.5977968868486692700 ) ;
#199 = AXIS2_PLACEMENT_3D ( 'NONE', #1, #249, #161 ) ;
#200 = DIRECTION ( 'NONE',  ( 1.000000000000000000, 0.0000000000000000000, 0.0000000000000000000 ) ) ;
#201 = VECTOR ( 'NONE', #123, 1000.000000000000000 ) ;
#202 = AXIS2_PLACEMENT_3D ( 'NONE', #193, #197, #12 ) ;
#203 = DIRECTION ( 'NONE',  ( 0.7071067811865474600, 0.0000000000000000000, -0.7071067811865474600 ) ) ;
#204 = DIRECTION ( 'NONE',  ( -1.000000000000000000, -0.0000000000000000000, -0.0000000000000000000 ) ) ;
#205 = DATE_AND_TIME ( #72, #239 ) ;
#206 = CLOSED_SHELL ( 'NONE', ( #168, #174, #211, #92, #55, #6, #102, #164, #73 ) ) ;
#207 = ORIENTED_EDGE ( 'NONE', *, *, #181, .T. ) ;
#208 = AXIS2_PLACEMENT_3D ( 'NONE', #108, #124, #271 ) ;
#209 = CC_DESIGN_PERSON_AND_ORGANIZATION_ASSIGNMENT ( #173, #232, ( #246 ) ) ;
#210 = EDGE_CURVE ( 'NONE', #156, #53, #281, .T. ) ;
#211 = ADVANCED_FACE ( 'NONE', ( #151 ), #81, .T. ) ;
#212 = ORIENTED_EDGE ( 'NONE', *, *, #98, .F. ) ;
#213 = ORIENTED_EDGE ( 'NONE', *, *, #7, .T. ) ;
#214 = APPROVAL_STATUS ( 'not_yet_approved' ) ;
#215 = DIRECTION ( 'NONE',  ( -1.000000000000000000, -0.0000000000000000000, -0.0000000000000000000 ) ) ;
#216 = CARTESIAN_POINT ( 'NONE',  ( -0.8090463762408517400, 3.082171733375031600E-015, -25.16784215270034900 ) ) ;
#217 = ORIENTED_EDGE ( 'NONE', *, *, #109, .T. ) ;
#218 = CARTESIAN_POINT ( 'NONE',  ( -1.150000000000456200, 0.0000000000000000000, 0.0000000000000000000 ) ) ;
#219 = UNCERTAINTY_MEASURE_WITH_UNIT (LENGTH_MEASURE( 1.000000000000000100E-005 ), #293, 'distance_accuracy_value', 'NONE');
#220 = EDGE_CURVE ( 'NONE', #127, #179, #86, .T. ) ;
#221 = EDGE_LOOP ( 'NONE', ( #212, #99, #237 ) ) ;
#222 = DATE_AND_TIME ( #121, #83 ) ;
#223 = PRODUCT_RELATED_PRODUCT_CATEGORY ( 'detail', '', ( #246 ) ) ;
#224 = CIRCLE ( 'NONE', #208, 25.39999999999999500 ) ;
#225 = AXIS2_PLACEMENT_3D ( 'NONE', #218, #250, #130 ) ;
#226 = CARTESIAN_POINT ( 'NONE',  ( -3.899999999999999900, 0.0000000000000000000, 0.0000000000000000000 ) ) ;
#227 = CARTESIAN_POINT ( 'NONE',  ( -3.899999999999999900, 0.0000000000000000000, -25.14999999999999100 ) ) ;
#228 =( GEOMETRIC_REPRESENTATION_CONTEXT ( 3 ) GLOBAL_UNCERTAINTY_ASSIGNED_CONTEXT ( ( #219 ) ) GLOBAL_UNIT_ASSIGNED_CONTEXT ( ( #293, #283, #117 ) ) REPRESENTATION_CONTEXT ( 'NONE', 'WORKASPACE' ) );
#229 = DIRECTION ( 'NONE',  ( 0.0000000000000000000, 0.0000000000000000000, 1.000000000000000000 ) ) ;
#230 = EDGE_CURVE ( 'NONE', #180, #127, #262, .T. ) ;
#231 = VERTEX_POINT ( 'NONE', #282 ) ;
#232 = PERSON_AND_ORGANIZATION_ROLE ( 'design_owner' ) ;
#233 = CARTESIAN_POINT ( 'NONE',  ( -0.8090463762408517400, 0.0000000000000000000, 0.0000000000000000000 ) ) ;
#234 = AXIS2_PLACEMENT_3D ( 'NONE', #187, #200, #240 ) ;
#235 = EDGE_CURVE ( 'NONE', #134, #93, #152, .T. ) ;
#236 = CC_DESIGN_PERSON_AND_ORGANIZATION_ASSIGNMENT ( #101, #61, ( #241 ) ) ;
#237 = ORIENTED_EDGE ( 'NONE', *, *, #35, .T. ) ;
#238 = ORIENTED_EDGE ( 'NONE', *, *, #182, .T. ) ;
#239 = LOCAL_TIME ( 10, 24, 18.00000000000000000, #153 ) ;
#240 = DIRECTION ( 'NONE',  ( 0.0000000000000000000, 0.0000000000000000000, -1.000000000000000000 ) ) ;
#241 = PRODUCT_DEFINITION ( 'UNKNOWN', '', #263, #17 ) ;
#242 = DIRECTION ( 'NONE',  ( 1.000000000000000000, 0.0000000000000000000, 0.0000000000000000000 ) ) ;
#243 = EDGE_LOOP ( 'NONE', ( #96, #177, #19, #106 ) ) ;
#244 = CC_DESIGN_APPROVAL ( #147, ( #241 ) ) ;
#245 = CIRCLE ( 'NONE', #56, 25.16784215270037000 ) ;
#246 = PRODUCT ( '4295-E0W', '4295-E0W', '', ( #169 ) ) ;
#247 = VECTOR ( 'NONE', #203, 1000.000000000000100 ) ;
#248 = PERSON_AND_ORGANIZATION_ROLE ( 'classification_officer' ) ;
#249 = DIRECTION ( 'NONE',  ( -1.000000000000000000, -0.0000000000000000000, -0.0000000000000000000 ) ) ;
#250 = DIRECTION ( 'NONE',  ( -1.000000000000000000, -0.0000000000000000000, -0.0000000000000000000 ) ) ;
#251 = EDGE_LOOP ( 'NONE', ( #52, #10, #163, #155 ) ) ;
#252 = APPROVAL_DATE_TIME ( #205, #147 ) ;
#253 = CARTESIAN_POINT ( 'NONE',  ( 3.899999999999999900, 0.0000000000000000000, 0.0000000000000000000 ) ) ;
#254 = DIRECTION ( 'NONE',  ( -0.8265775821942572500, 6.892591366058208800E-017, -0.5628227968143222300 ) ) ;
#255 = FACE_OUTER_BOUND ( 'NONE', #110, .T. ) ;
#256 = APPROVAL_ROLE ( '' ) ;
#257 = PRODUCT_DEFINITION_SHAPE ( 'NONE', 'NONE',  #241 ) ;
#258 = DIRECTION ( 'NONE',  ( -1.000000000000000000, -0.0000000000000000000, -0.0000000000000000000 ) ) ;
#259 = CIRCLE ( 'NONE', #32, 25.14999999999999100 ) ;
#260 = CARTESIAN_POINT ( 'NONE',  ( -3.899999999999999900, 0.0000000000000000000, 0.0000000000000000000 ) ) ;
#261 = AXIS2_PLACEMENT_3D ( 'NONE', #233, #51, #91 ) ;
#262 = CIRCLE ( 'NONE', #48, 69.00000000000000000 ) ;
#263 = PRODUCT_DEFINITION_FORMATION_WITH_SPECIFIED_SOURCE ( 'ANY', '', #246, .NOT_KNOWN. ) ;
#264 = FACE_OUTER_BOUND ( 'NONE', #194, .T. ) ;
#265 = PERSON_AND_ORGANIZATION_ROLE ( 'design_supplier' ) ;
#266 = DIRECTION ( 'NONE',  ( 0.0000000000000000000, 0.0000000000000000000, -1.000000000000000000 ) ) ;
#267 = AXIS2_PLACEMENT_3D ( 'NONE', #146, #270, #176 ) ;
#268 = ORIENTED_EDGE ( 'NONE', *, *, #67, .T. ) ;
#269 = FACE_OUTER_BOUND ( 'NONE', #251, .T. ) ;
#270 = DIRECTION ( 'NONE',  ( 1.000000000000000000, 0.0000000000000000000, 0.0000000000000000000 ) ) ;
#271 = DIRECTION ( 'NONE',  ( 0.0000000000000000000, 0.0000000000000000000, 1.000000000000000000 ) ) ;
#272 = LINE ( 'NONE', #70, #41 ) ;
#273 = APPLICATION_CONTEXT ( 'configuration controlled 3d designs of mechanical parts and assemblies' ) ;
#274 = VECTOR ( 'NONE', #254, 1000.000000000000000 ) ;
#275 = DIRECTION ( 'NONE',  ( -1.000000000000000000, -0.0000000000000000000, -0.0000000000000000000 ) ) ;
#276 = AXIS2_PLACEMENT_3D ( 'NONE', #183, #15, #294 ) ;
#277 = CC_DESIGN_APPROVAL ( #85, ( #263 ) ) ;
#278 = CARTESIAN_POINT ( 'NONE',  ( -1.150000000000456200, 0.0000000000000000000, 25.39999999999999500 ) ) ;
#279 = CYLINDRICAL_SURFACE ( 'NONE', #65, 25.39999999999999500 ) ;
#280 = DIRECTION ( 'NONE',  ( 1.000000000000000000, 0.0000000000000000000, 0.0000000000000000000 ) ) ;
#281 = LINE ( 'NONE', #227, #247 ) ;
#282 = CARTESIAN_POINT ( 'NONE',  ( -1.150000000000456200, 0.0000000000000000000, 25.39999999999999500 ) ) ;
#283 =( NAMED_UNIT ( * ) PLANE_ANGLE_UNIT ( ) SI_UNIT ( $, .RADIAN. ) );
#284 = AXIS2_PLACEMENT_3D ( 'NONE', #24, #215, #144 ) ;
#285 = CARTESIAN_POINT ( 'NONE',  ( -3.649999999999995900, 0.0000000000000000000, 0.0000000000000000000 ) ) ;
#286 = DIRECTION ( 'NONE',  ( 0.0000000000000000000, 0.0000000000000000000, 1.000000000000000000 ) ) ;
#287 = FACE_OUTER_BOUND ( 'NONE', #243, .T. ) ;
#288 = EDGE_LOOP ( 'NONE', ( #300, #298, #38, #9 ) ) ;
#289 = CARTESIAN_POINT ( 'NONE',  ( 0.0000000000000000000, 0.0000000000000000000, 0.0000000000000000000 ) ) ;
#290 = APPROVAL_STATUS ( 'not_yet_approved' ) ;
#291 = DIRECTION ( 'NONE',  ( 0.0000000000000000000, 0.0000000000000000000, -1.000000000000000000 ) ) ;
#292 = ORIENTED_EDGE ( 'NONE', *, *, #13, .F. ) ;
#293 =( LENGTH_UNIT ( ) NAMED_UNIT ( * ) SI_UNIT ( .MILLI., .METRE. ) );
#294 = DIRECTION ( 'NONE',  ( 0.0000000000000000000, 0.0000000000000000000, -1.000000000000000000 ) ) ;
#295 = APPLICATION_PROTOCOL_DEFINITION ( 'international standard', 'config_control_design', 1994, #273 ) ;
#296 = EDGE_CURVE ( 'NONE', #93, #53, #64, .T. ) ;
#297 = CONICAL_SURFACE ( 'NONE', #137, 25.14999999999999100, 0.7853981633974482800 ) ;
#298 = ORIENTED_EDGE ( 'NONE', *, *, #235, .T. ) ;
#299 = AXIS2_PLACEMENT_3D ( 'NONE', #226, #167, #291 ) ;
#300 = ORIENTED_EDGE ( 'NONE', *, *, #182, .F. ) ;
#301 = CARTESIAN_POINT ( 'NONE',  ( -3.649999999999995900, 0.0000000000000000000, 25.39999999999999500 ) ) ;
ENDSEC;
END-ISO-10303-21;
