ISO-10303-21;
HEADER;
FILE_DESCRIPTION (( 'STEP AP203' ),
    '1' );
FILE_NAME ('Web Model 45311_11923.step',
    '2019-01-07T15:40:41',
    ( '' ),
    ( '' ),
    'SwSTEP 2.0',
    'SolidWorks 2016',
    '' );
FILE_SCHEMA (( 'CONFIG_CONTROL_DESIGN' ));
ENDSEC;

DATA;
#1 = PERSON_AND_ORGANIZATION ( #95, #146 ) ;
#2 = CC_DESIGN_SECURITY_CLASSIFICATION ( #172, ( #121 ) ) ;
#3 = VERTEX_POINT ( 'NONE', #153 ) ;
#4 = CARTESIAN_POINT ( 'NONE',  ( 0.0000000000000000000, 0.0000000000000000000, 1.000000000000000000 ) ) ;
#5 = ORIENTED_EDGE ( 'NONE', *, *, #17, .F. ) ;
#6 = DIRECTION ( 'NONE',  ( 1.000000000000000000, 0.0000000000000000000, 0.0000000000000000000 ) ) ;
#7 = CC_DESIGN_DATE_AND_TIME_ASSIGNMENT ( #169, #94, ( #172 ) ) ;
#8 = SHAPE_DEFINITION_REPRESENTATION ( #96, #99 ) ;
#9 = EDGE_LOOP ( 'NONE', ( #46, #5, #105, #89 ) ) ;
#10 = ADVANCED_FACE ( 'NONE', ( #75 ), #129, .T. ) ;
#11 = ADVANCED_FACE ( 'NONE', ( #24 ), #131, .T. ) ;
#12 = CALENDAR_DATE ( 2019, 7, 1 ) ;
#13 = DIRECTION ( 'NONE',  ( -0.0000000000000000000, -0.0000000000000000000, -1.000000000000000000 ) ) ;
#14 = SECURITY_CLASSIFICATION_LEVEL ( 'unclassified' ) ;
#15 = EDGE_LOOP ( 'NONE', ( #78, #152, #155, #175 ) ) ;
#16 = PERSON_AND_ORGANIZATION_ROLE ( 'classification_officer' ) ;
#17 = EDGE_CURVE ( 'NONE', #66, #140, #60, .T. ) ;
#18 = APPROVAL_DATE_TIME ( #110, #113 ) ;
#19 = ORIENTED_EDGE ( 'NONE', *, *, #17, .T. ) ;
#20 = DIRECTION ( 'NONE',  ( 1.000000000000000000, 0.0000000000000000000, 0.0000000000000000000 ) ) ;
#21 = DIRECTION ( 'NONE',  ( -1.000000000000000000, 0.0000000000000000000, 0.0000000000000000000 ) ) ;
#22 = CARTESIAN_POINT ( 'NONE',  ( -12.50000000000000000, 0.0000000000000000000, 1.000000000000000000 ) ) ;
#23 = CC_DESIGN_DATE_AND_TIME_ASSIGNMENT ( #125, #171, ( #100 ) ) ;
#24 = FACE_OUTER_BOUND ( 'NONE', #111, .T. ) ;
#25 = CARTESIAN_POINT ( 'NONE',  ( 0.0000000000000000000, 0.0000000000000000000, -1.000000000000000000 ) ) ;
#26 = DIRECTION ( 'NONE',  ( 1.000000000000000000, 0.0000000000000000000, -0.0000000000000000000 ) ) ;
#27 = LOCAL_TIME ( 10, 40, 41.00000000000000000, #48 ) ;
#28 = APPLICATION_PROTOCOL_DEFINITION ( 'international standard', 'config_control_design', 1994, #173 ) ;
#29 = APPROVAL ( #112, 'UNSPECIFIED' ) ;
#30 = PERSON_AND_ORGANIZATION_ROLE ( 'creator' ) ;
#31 = CARTESIAN_POINT ( 'NONE',  ( 0.0000000000000000000, 0.0000000000000000000, 0.0000000000000000000 ) ) ;
#32 = ORIENTED_EDGE ( 'NONE', *, *, #119, .F. ) ;
#33 = APPROVAL_DATE_TIME ( #157, #29 ) ;
#34 = APPROVAL_PERSON_ORGANIZATION ( #102, #29, #82 ) ;
#35 = PERSON_AND_ORGANIZATION ( #95, #146 ) ;
#36 = CALENDAR_DATE ( 2019, 7, 1 ) ;
#37 = DIRECTION ( 'NONE',  ( -0.0000000000000000000, -0.0000000000000000000, -1.000000000000000000 ) ) ;
#38 = CC_DESIGN_APPROVAL ( #29, ( #172 ) ) ;
#39 = ADVANCED_FACE ( 'NONE', ( #161 ), #132, .T. ) ;
#40 = ORIENTED_EDGE ( 'NONE', *, *, #47, .F. ) ;
#41 = COORDINATED_UNIVERSAL_TIME_OFFSET ( 5, 0, .BEHIND. ) ;
#42 = CARTESIAN_POINT ( 'NONE',  ( 0.0000000000000000000, 0.0000000000000000000, 1.000000000000000000 ) ) ;
#43 = MECHANICAL_CONTEXT ( 'NONE', #108, 'mechanical' ) ;
#44 = LOCAL_TIME ( 10, 40, 41.00000000000000000, #73 ) ;
#45 = DIRECTION ( 'NONE',  ( 1.000000000000000000, 0.0000000000000000000, 0.0000000000000000000 ) ) ;
#46 = ORIENTED_EDGE ( 'NONE', *, *, #141, .F. ) ;
#47 = EDGE_CURVE ( 'NONE', #3, #148, #98, .T. ) ;
#48 = COORDINATED_UNIVERSAL_TIME_OFFSET ( 5, 0, .BEHIND. ) ;
#49 = CLOSED_SHELL ( 'NONE', ( #39, #10, #11, #67 ) ) ;
#50 = CARTESIAN_POINT ( 'NONE',  ( 12.50000000000000000, 1.530808498934191500E-015, 1.000000000000000000 ) ) ;
#51 = VECTOR ( 'NONE', #147, 1000.000000000000000 ) ;
#52 = AXIS2_PLACEMENT_3D ( 'NONE', #104, #120, #122 ) ;
#53 = DIRECTION ( 'NONE',  ( 0.0000000000000000000, 0.0000000000000000000, 1.000000000000000000 ) ) ;
#54 = PERSON_AND_ORGANIZATION_ROLE ( 'design_owner' ) ;
#55 = CALENDAR_DATE ( 2019, 7, 1 ) ;
#56 = CIRCLE ( 'NONE', #84, 12.50000000000000000 ) ;
#57 = PRODUCT_RELATED_PRODUCT_CATEGORY ( 'detail', '', ( #136 ) ) ;
#58 = APPROVAL_STATUS ( 'not_yet_approved' ) ;
#59 = APPROVAL_ROLE ( '' ) ;
#60 = CIRCLE ( 'NONE', #52, 12.50000000000000000 ) ;
#61 = CC_DESIGN_PERSON_AND_ORGANIZATION_ASSIGNMENT ( #35, #54, ( #136 ) ) ;
#62 = CC_DESIGN_APPROVAL ( #144, ( #100 ) ) ;
#63 = APPROVAL_PERSON_ORGANIZATION ( #81, #113, #59 ) ;
#64 = DIRECTION ( 'NONE',  ( -1.000000000000000000, 0.0000000000000000000, 0.0000000000000000000 ) ) ;
#65 = DESIGN_CONTEXT ( 'detailed design', #173, 'design' ) ;
#66 = VERTEX_POINT ( 'NONE', #22 ) ;
#67 = ADVANCED_FACE ( 'NONE', ( #87 ), #142, .F. ) ;
#68 = PERSON_AND_ORGANIZATION_ROLE ( 'design_supplier' ) ;
#69 = PERSON_AND_ORGANIZATION ( #95, #146 ) ;
#70 = AXIS2_PLACEMENT_3D ( 'NONE', #143, #88, #6 ) ;
#71 = CALENDAR_DATE ( 2019, 7, 1 ) ;
#72 = CARTESIAN_POINT ( 'NONE',  ( 0.0000000000000000000, 0.0000000000000000000, 1.000000000000000000 ) ) ;
#73 = COORDINATED_UNIVERSAL_TIME_OFFSET ( 5, 0, .BEHIND. ) ;
#74 = APPROVAL_PERSON_ORGANIZATION ( #115, #144, #124 ) ;
#75 = FACE_OUTER_BOUND ( 'NONE', #9, .T. ) ;
#76 =( GEOMETRIC_REPRESENTATION_CONTEXT ( 3 ) GLOBAL_UNCERTAINTY_ASSIGNED_CONTEXT ( ( #163 ) ) GLOBAL_UNIT_ASSIGNED_CONTEXT ( ( #149, #109, #83 ) ) REPRESENTATION_CONTEXT ( 'NONE', 'WORKASPACE' ) );
#77 = LOCAL_TIME ( 10, 40, 41.00000000000000000, #41 ) ;
#78 = ORIENTED_EDGE ( 'NONE', *, *, #117, .F. ) ;
#79 = PERSON_AND_ORGANIZATION_ROLE ( 'creator' ) ;
#80 = AXIS2_PLACEMENT_3D ( 'NONE', #156, #101, #21 ) ;
#81 = PERSON_AND_ORGANIZATION ( #95, #146 ) ;
#82 = APPROVAL_ROLE ( '' ) ;
#83 =( NAMED_UNIT ( * ) SI_UNIT ( $, .STERADIAN. ) SOLID_ANGLE_UNIT ( ) );
#84 = AXIS2_PLACEMENT_3D ( 'NONE', #107, #127, #45 ) ;
#85 = CC_DESIGN_PERSON_AND_ORGANIZATION_ASSIGNMENT ( #1, #68, ( #121 ) ) ;
#86 = LINE ( 'NONE', #137, #51 ) ;
#87 = FACE_OUTER_BOUND ( 'NONE', #126, .T. ) ;
#88 = DIRECTION ( 'NONE',  ( 0.0000000000000000000, 0.0000000000000000000, 1.000000000000000000 ) ) ;
#89 = ORIENTED_EDGE ( 'NONE', *, *, #47, .T. ) ;
#90 = CARTESIAN_POINT ( 'NONE',  ( -12.50000000000000000, 0.0000000000000000000, 1.000000000000000000 ) ) ;
#91 = CC_DESIGN_PERSON_AND_ORGANIZATION_ASSIGNMENT ( #69, #16, ( #172 ) ) ;
#92 = DIRECTION ( 'NONE',  ( 1.000000000000000000, 0.0000000000000000000, 0.0000000000000000000 ) ) ;
#93 = APPROVAL_STATUS ( 'not_yet_approved' ) ;
#94 = DATE_TIME_ROLE ( 'classification_date' ) ;
#95 = PERSON ( 'UNSPECIFIED', 'UNSPECIFIED', 'UNSPECIFIED', ('UNSPECIFIED'), ('UNSPECIFIED'), ('UNSPECIFIED') ) ;
#96 = PRODUCT_DEFINITION_SHAPE ( 'NONE', 'NONE',  #100 ) ;
#97 = PERSON_AND_ORGANIZATION ( #95, #146 ) ;
#98 = CIRCLE ( 'NONE', #70, 12.50000000000000000 ) ;
#99 = ADVANCED_BREP_SHAPE_REPRESENTATION ( 'Web Model 45311_11923', ( #159, #160 ), #76 ) ;
#100 = PRODUCT_DEFINITION ( 'UNKNOWN', '', #121, #65 ) ;
#101 = DIRECTION ( 'NONE',  ( -0.0000000000000000000, -0.0000000000000000000, -1.000000000000000000 ) ) ;
#102 = PERSON_AND_ORGANIZATION ( #95, #146 ) ;
#103 = EDGE_CURVE ( 'NONE', #66, #3, #128, .T. ) ;
#104 = CARTESIAN_POINT ( 'NONE',  ( 0.0000000000000000000, 0.0000000000000000000, 1.000000000000000000 ) ) ;
#105 = ORIENTED_EDGE ( 'NONE', *, *, #103, .T. ) ;
#106 = COORDINATED_UNIVERSAL_TIME_OFFSET ( 5, 0, .BEHIND. ) ;
#107 = CARTESIAN_POINT ( 'NONE',  ( 0.0000000000000000000, 0.0000000000000000000, -1.000000000000000000 ) ) ;
#108 = APPLICATION_CONTEXT ( 'configuration controlled 3d designs of mechanical parts and assemblies' ) ;
#109 =( NAMED_UNIT ( * ) PLANE_ANGLE_UNIT ( ) SI_UNIT ( $, .RADIAN. ) );
#110 = DATE_AND_TIME ( #36, #27 ) ;
#111 = EDGE_LOOP ( 'NONE', ( #19, #116 ) ) ;
#112 = APPROVAL_STATUS ( 'not_yet_approved' ) ;
#113 = APPROVAL ( #93, 'UNSPECIFIED' ) ;
#114 = AXIS2_PLACEMENT_3D ( 'NONE', #72, #118, #165 ) ;
#115 = PERSON_AND_ORGANIZATION ( #95, #146 ) ;
#116 = ORIENTED_EDGE ( 'NONE', *, *, #117, .T. ) ;
#117 = EDGE_CURVE ( 'NONE', #140, #66, #154, .T. ) ;
#118 = DIRECTION ( 'NONE',  ( 0.0000000000000000000, 0.0000000000000000000, 1.000000000000000000 ) ) ;
#119 = EDGE_CURVE ( 'NONE', #148, #3, #56, .T. ) ;
#120 = DIRECTION ( 'NONE',  ( 0.0000000000000000000, 0.0000000000000000000, 1.000000000000000000 ) ) ;
#121 = PRODUCT_DEFINITION_FORMATION_WITH_SPECIFIED_SOURCE ( 'ANY', '', #136, .NOT_KNOWN. ) ;
#122 = DIRECTION ( 'NONE',  ( 1.000000000000000000, 0.0000000000000000000, 0.0000000000000000000 ) ) ;
#123 = AXIS2_PLACEMENT_3D ( 'NONE', #42, #53, #20 ) ;
#124 = APPROVAL_ROLE ( '' ) ;
#125 = DATE_AND_TIME ( #55, #77 ) ;
#126 = EDGE_LOOP ( 'NONE', ( #40, #32 ) ) ;
#127 = DIRECTION ( 'NONE',  ( 0.0000000000000000000, 0.0000000000000000000, 1.000000000000000000 ) ) ;
#128 = LINE ( 'NONE', #90, #170 ) ;
#129 = CYLINDRICAL_SURFACE ( 'NONE', #134, 12.50000000000000000 ) ;
#130 = CC_DESIGN_PERSON_AND_ORGANIZATION_ASSIGNMENT ( #139, #30, ( #121 ) ) ;
#131 = PLANE ( 'NONE',  #114 ) ;
#132 = CYLINDRICAL_SURFACE ( 'NONE', #80, 12.50000000000000000 ) ;
#133 = APPLICATION_PROTOCOL_DEFINITION ( 'international standard', 'config_control_design', 1994, #108 ) ;
#134 = AXIS2_PLACEMENT_3D ( 'NONE', #4, #37, #64 ) ;
#135 = DIRECTION ( 'NONE',  ( 0.0000000000000000000, 0.0000000000000000000, 1.000000000000000000 ) ) ;
#136 = PRODUCT ( 'Web Model 45311_11923', 'Web Model 45311_11923', '', ( #43 ) ) ;
#137 = CARTESIAN_POINT ( 'NONE',  ( 12.50000000000000000, 1.530808498934191500E-015, 1.000000000000000000 ) ) ;
#138 = DATE_AND_TIME ( #158, #164 ) ;
#139 = PERSON_AND_ORGANIZATION ( #95, #146 ) ;
#140 = VERTEX_POINT ( 'NONE', #50 ) ;
#141 = EDGE_CURVE ( 'NONE', #140, #148, #86, .T. ) ;
#142 = PLANE ( 'NONE',  #150 ) ;
#143 = CARTESIAN_POINT ( 'NONE',  ( 0.0000000000000000000, 0.0000000000000000000, -1.000000000000000000 ) ) ;
#144 = APPROVAL ( #58, 'UNSPECIFIED' ) ;
#145 = LOCAL_TIME ( 10, 40, 41.00000000000000000, #106 ) ;
#146 = ORGANIZATION ( 'UNSPECIFIED', 'UNSPECIFIED', '' ) ;
#147 = DIRECTION ( 'NONE',  ( -0.0000000000000000000, -0.0000000000000000000, -1.000000000000000000 ) ) ;
#148 = VERTEX_POINT ( 'NONE', #174 ) ;
#149 =( LENGTH_UNIT ( ) NAMED_UNIT ( * ) SI_UNIT ( .MILLI., .METRE. ) );
#150 = AXIS2_PLACEMENT_3D ( 'NONE', #25, #166, #26 ) ;
#151 = APPROVAL_DATE_TIME ( #138, #144 ) ;
#152 = ORIENTED_EDGE ( 'NONE', *, *, #141, .T. ) ;
#153 = CARTESIAN_POINT ( 'NONE',  ( -12.50000000000000000, 0.0000000000000000000, -1.000000000000000000 ) ) ;
#154 = CIRCLE ( 'NONE', #123, 12.50000000000000000 ) ;
#155 = ORIENTED_EDGE ( 'NONE', *, *, #119, .T. ) ;
#156 = CARTESIAN_POINT ( 'NONE',  ( 0.0000000000000000000, 0.0000000000000000000, 1.000000000000000000 ) ) ;
#157 = DATE_AND_TIME ( #12, #44 ) ;
#158 = CALENDAR_DATE ( 2019, 7, 1 ) ;
#159 = MANIFOLD_SOLID_BREP ( 'Boss-Extrude1', #49 ) ;
#160 = AXIS2_PLACEMENT_3D ( 'NONE', #31, #135, #92 ) ;
#161 = FACE_OUTER_BOUND ( 'NONE', #15, .T. ) ;
#162 = CC_DESIGN_PERSON_AND_ORGANIZATION_ASSIGNMENT ( #97, #79, ( #100 ) ) ;
#163 = UNCERTAINTY_MEASURE_WITH_UNIT (LENGTH_MEASURE( 1.000000000000000100E-005 ), #149, 'distance_accuracy_value', 'NONE');
#164 = LOCAL_TIME ( 10, 40, 41.00000000000000000, #168 ) ;
#165 = DIRECTION ( 'NONE',  ( 1.000000000000000000, 0.0000000000000000000, -0.0000000000000000000 ) ) ;
#166 = DIRECTION ( 'NONE',  ( 0.0000000000000000000, 0.0000000000000000000, 1.000000000000000000 ) ) ;
#167 = CC_DESIGN_APPROVAL ( #113, ( #121 ) ) ;
#168 = COORDINATED_UNIVERSAL_TIME_OFFSET ( 5, 0, .BEHIND. ) ;
#169 = DATE_AND_TIME ( #71, #145 ) ;
#170 = VECTOR ( 'NONE', #13, 1000.000000000000000 ) ;
#171 = DATE_TIME_ROLE ( 'creation_date' ) ;
#172 = SECURITY_CLASSIFICATION ( '', '', #14 ) ;
#173 = APPLICATION_CONTEXT ( 'configuration controlled 3d designs of mechanical parts and assemblies' ) ;
#174 = CARTESIAN_POINT ( 'NONE',  ( 12.50000000000000000, 1.530808498934191500E-015, -1.000000000000000000 ) ) ;
#175 = ORIENTED_EDGE ( 'NONE', *, *, #103, .F. ) ;
ENDSEC;
END-ISO-10303-21;
