ISO-10303-21;
HEADER;
FILE_DESCRIPTION (( 'STEP AP203' ),
    '1' );
FILE_NAME ('43366C_36487.step',
    '2017-07-20T12:39:56',
    ( '' ),
    ( '' ),
    'SwSTEP 2.0',
    'SolidWorks 2016',
    '' );
FILE_SCHEMA (( 'CONFIG_CONTROL_DESIGN' ));
ENDSEC;

DATA;
#1 = CC_DESIGN_APPROVAL ( #120, ( #130 ) ) ;
#2 = APPLICATION_CONTEXT ( 'configuration controlled 3d designs of mechanical parts and assemblies' ) ;
#3 = PERSON_AND_ORGANIZATION_ROLE ( 'design_supplier' ) ;
#4 = DIRECTION ( 'NONE',  ( 1.000000000000000000, 0.0000000000000000000, -0.0000000000000000000 ) ) ;
#5 = CYLINDRICAL_SURFACE ( 'NONE', #129, 5.000000000000004400 ) ;
#6 = AXIS2_PLACEMENT_3D ( 'NONE', #36, #38, #13 ) ;
#7 = PERSON_AND_ORGANIZATION_ROLE ( 'design_owner' ) ;
#8 = PERSON_AND_ORGANIZATION ( #154, #66 ) ;
#9 = VECTOR ( 'NONE', #25, 1000.000000000000000 ) ;
#10 = DATE_TIME_ROLE ( 'classification_date' ) ;
#11 = COORDINATED_UNIVERSAL_TIME_OFFSET ( 5, 0, .BEHIND. ) ;
#12 = MECHANICAL_CONTEXT ( 'NONE', #14, 'mechanical' ) ;
#13 = DIRECTION ( 'NONE',  ( 1.000000000000000000, 0.0000000000000000000, 0.0000000000000000000 ) ) ;
#14 = APPLICATION_CONTEXT ( 'configuration controlled 3d designs of mechanical parts and assemblies' ) ;
#15 = AXIS2_PLACEMENT_3D ( 'NONE', #105, #50, #44 ) ;
#16 = AXIS2_PLACEMENT_3D ( 'NONE', #146, #141, #135 ) ;
#17 = LOCAL_TIME ( 8, 39, 56.00000000000000000, #11 ) ;
#18 = CARTESIAN_POINT ( 'NONE',  ( 0.0000000000000000000, 0.0000000000000000000, -0.5000000000000000000 ) ) ;
#19 = APPLICATION_PROTOCOL_DEFINITION ( 'international standard', 'config_control_design', 1994, #14 ) ;
#20 = AXIS2_PLACEMENT_3D ( 'NONE', #123, #122, #121 ) ;
#21 = CC_DESIGN_APPROVAL ( #57, ( #28 ) ) ;
#22 = ORIENTED_EDGE ( 'NONE', *, *, #72, .T. ) ;
#23 = CIRCLE ( 'NONE', #20, 5.000000000000004400 ) ;
#24 = APPROVAL_STATUS ( 'not_yet_approved' ) ;
#25 = DIRECTION ( 'NONE',  ( -0.0000000000000000000, -0.0000000000000000000, -1.000000000000000000 ) ) ;
#26 = PERSON_AND_ORGANIZATION ( #154, #66 ) ;
#27 = MANIFOLD_SOLID_BREP ( 'Boss-Extrude1', #67 ) ;
#28 = PRODUCT_DEFINITION ( 'UNKNOWN', '', #130, #94 ) ;
#29 = ORIENTED_EDGE ( 'NONE', *, *, #77, .F. ) ;
#30 =( NAMED_UNIT ( * ) SI_UNIT ( $, .STERADIAN. ) SOLID_ANGLE_UNIT ( ) );
#31 =( NAMED_UNIT ( * ) PLANE_ANGLE_UNIT ( ) SI_UNIT ( $, .RADIAN. ) );
#32 = CALENDAR_DATE ( 2017, 20, 7 ) ;
#33 = PERSON_AND_ORGANIZATION ( #154, #66 ) ;
#34 = APPROVAL_PERSON_ORGANIZATION ( #64, #57, #92 ) ;
#35 = CC_DESIGN_PERSON_AND_ORGANIZATION_ASSIGNMENT ( #8, #158, ( #28 ) ) ;
#36 = CARTESIAN_POINT ( 'NONE',  ( 0.0000000000000000000, 0.0000000000000000000, 0.0000000000000000000 ) ) ;
#37 = APPROVAL_STATUS ( 'not_yet_approved' ) ;
#38 = DIRECTION ( 'NONE',  ( 0.0000000000000000000, 0.0000000000000000000, 1.000000000000000000 ) ) ;
#39 = CARTESIAN_POINT ( 'NONE',  ( 0.0000000000000000000, 0.0000000000000000000, 0.5000000000000000000 ) ) ;
#40 = EDGE_LOOP ( 'NONE', ( #58, #98 ) ) ;
#41 = DIRECTION ( 'NONE',  ( -0.0000000000000000000, -0.0000000000000000000, -1.000000000000000000 ) ) ;
#42 = ADVANCED_FACE ( 'NONE', ( #71 ), #174, .F. ) ;
#43 = LINE ( 'NONE', #124, #73 ) ;
#44 = DIRECTION ( 'NONE',  ( 1.000000000000000000, 0.0000000000000000000, -0.0000000000000000000 ) ) ;
#45 = LINE ( 'NONE', #170, #9 ) ;
#46 = PERSON_AND_ORGANIZATION ( #154, #66 ) ;
#47 = AXIS2_PLACEMENT_3D ( 'NONE', #89, #80, #75 ) ;
#48 = SECURITY_CLASSIFICATION ( '', '', #88 ) ;
#49 = CALENDAR_DATE ( 2017, 20, 7 ) ;
#50 = DIRECTION ( 'NONE',  ( 0.0000000000000000000, 0.0000000000000000000, 1.000000000000000000 ) ) ;
#51 = CC_DESIGN_DATE_AND_TIME_ASSIGNMENT ( #157, #10, ( #48 ) ) ;
#52 = DIRECTION ( 'NONE',  ( 1.000000000000000000, 0.0000000000000000000, 0.0000000000000000000 ) ) ;
#53 = LOCAL_TIME ( 8, 39, 56.00000000000000000, #86 ) ;
#54 = UNCERTAINTY_MEASURE_WITH_UNIT (LENGTH_MEASURE( 1.000000000000000100E-005 ), #61, 'distance_accuracy_value', 'NONE');
#55 = DIRECTION ( 'NONE',  ( 0.0000000000000000000, 0.0000000000000000000, 1.000000000000000000 ) ) ;
#56 = LOCAL_TIME ( 8, 39, 56.00000000000000000, #119 ) ;
#57 = APPROVAL ( #37, 'UNSPECIFIED' ) ;
#58 = ORIENTED_EDGE ( 'NONE', *, *, #77, .T. ) ;
#59 = DATE_AND_TIME ( #32, #140 ) ;
#60 = CARTESIAN_POINT ( 'NONE',  ( 0.0000000000000000000, 0.0000000000000000000, -0.5000000000000000000 ) ) ;
#61 =( LENGTH_UNIT ( ) NAMED_UNIT ( * ) SI_UNIT ( .MILLI., .METRE. ) );
#62 = APPROVAL_PERSON_ORGANIZATION ( #33, #84, #127 ) ;
#63 = DATE_TIME_ROLE ( 'creation_date' ) ;
#64 = PERSON_AND_ORGANIZATION ( #154, #66 ) ;
#65 = CIRCLE ( 'NONE', #113, 5.000000000000004400 ) ;
#66 = ORGANIZATION ( 'UNSPECIFIED', 'UNSPECIFIED', '' ) ;
#67 = CLOSED_SHELL ( 'NONE', ( #159, #76, #147, #42 ) ) ;
#68 = ORIENTED_EDGE ( 'NONE', *, *, #82, .T. ) ;
#69 = EDGE_CURVE ( 'NONE', #85, #78, #45, .T. ) ;
#70 = CYLINDRICAL_SURFACE ( 'NONE', #137, 5.000000000000004400 ) ;
#71 = FACE_OUTER_BOUND ( 'NONE', #114, .T. ) ;
#72 = EDGE_CURVE ( 'NONE', #78, #102, #79, .T. ) ;
#73 = VECTOR ( 'NONE', #115, 1000.000000000000000 ) ;
#74 = APPROVAL_PERSON_ORGANIZATION ( #26, #120, #136 ) ;
#75 = DIRECTION ( 'NONE',  ( 1.000000000000000000, 0.0000000000000000000, 0.0000000000000000000 ) ) ;
#76 = ADVANCED_FACE ( 'NONE', ( #151 ), #5, .T. ) ;
#77 = EDGE_CURVE ( 'NONE', #128, #85, #23, .T. ) ;
#78 = VERTEX_POINT ( 'NONE', #125 ) ;
#79 = CIRCLE ( 'NONE', #16, 5.000000000000004400 ) ;
#80 = DIRECTION ( 'NONE',  ( 0.0000000000000000000, 0.0000000000000000000, 1.000000000000000000 ) ) ;
#81 = PERSON_AND_ORGANIZATION ( #154, #66 ) ;
#82 = EDGE_CURVE ( 'NONE', #128, #102, #43, .T. ) ;
#83 = ORIENTED_EDGE ( 'NONE', *, *, #108, .F. ) ;
#84 = APPROVAL ( #145, 'UNSPECIFIED' ) ;
#85 = VERTEX_POINT ( 'NONE', #109 ) ;
#86 = COORDINATED_UNIVERSAL_TIME_OFFSET ( 5, 0, .BEHIND. ) ;
#87 = AXIS2_PLACEMENT_3D ( 'NONE', #18, #173, #4 ) ;
#88 = SECURITY_CLASSIFICATION_LEVEL ( 'unclassified' ) ;
#89 = CARTESIAN_POINT ( 'NONE',  ( 0.0000000000000000000, 0.0000000000000000000, 0.5000000000000000000 ) ) ;
#90 = DATE_AND_TIME ( #138, #17 ) ;
#91 = DIRECTION ( 'NONE',  ( -1.000000000000000000, 0.0000000000000000000, 0.0000000000000000000 ) ) ;
#92 = APPROVAL_ROLE ( '' ) ;
#93 = PERSON_AND_ORGANIZATION_ROLE ( 'creator' ) ;
#94 = DESIGN_CONTEXT ( 'detailed design', #2, 'design' ) ;
#95 = ORIENTED_EDGE ( 'NONE', *, *, #69, .F. ) ;
#96 = CC_DESIGN_APPROVAL ( #84, ( #48 ) ) ;
#97 = APPROVAL_DATE_TIME ( #90, #120 ) ;
#98 = ORIENTED_EDGE ( 'NONE', *, *, #108, .T. ) ;
#99 = ORIENTED_EDGE ( 'NONE', *, *, #82, .F. ) ;
#100 = CALENDAR_DATE ( 2017, 20, 7 ) ;
#101 = PLANE ( 'NONE',  #15 ) ;
#102 = VERTEX_POINT ( 'NONE', #134 ) ;
#103 = ORIENTED_EDGE ( 'NONE', *, *, #69, .T. ) ;
#104 = COORDINATED_UNIVERSAL_TIME_OFFSET ( 5, 0, .BEHIND. ) ;
#105 = CARTESIAN_POINT ( 'NONE',  ( 0.0000000000000000000, 0.0000000000000000000, 0.5000000000000000000 ) ) ;
#106 = PERSON_AND_ORGANIZATION ( #154, #66 ) ;
#107 = CC_DESIGN_SECURITY_CLASSIFICATION ( #48, ( #130 ) ) ;
#108 = EDGE_CURVE ( 'NONE', #85, #128, #161, .T. ) ;
#109 = CARTESIAN_POINT ( 'NONE',  ( 5.000000000000004400, 6.123233995736772200E-016, 0.5000000000000000000 ) ) ;
#110 = ADVANCED_BREP_SHAPE_REPRESENTATION ( '43366C_36487', ( #27, #6 ), #144 ) ;
#111 = CARTESIAN_POINT ( 'NONE',  ( -5.000000000000004400, 0.0000000000000000000, 0.5000000000000000000 ) ) ;
#112 = CC_DESIGN_PERSON_AND_ORGANIZATION_ASSIGNMENT ( #81, #172, ( #48 ) ) ;
#113 = AXIS2_PLACEMENT_3D ( 'NONE', #60, #55, #52 ) ;
#114 = EDGE_LOOP ( 'NONE', ( #143, #165 ) ) ;
#115 = DIRECTION ( 'NONE',  ( -0.0000000000000000000, -0.0000000000000000000, -1.000000000000000000 ) ) ;
#116 = SHAPE_DEFINITION_REPRESENTATION ( #169, #110 ) ;
#117 = FACE_OUTER_BOUND ( 'NONE', #40, .T. ) ;
#118 = PRODUCT_RELATED_PRODUCT_CATEGORY ( 'detail', '', ( #168 ) ) ;
#119 = COORDINATED_UNIVERSAL_TIME_OFFSET ( 5, 0, .BEHIND. ) ;
#120 = APPROVAL ( #24, 'UNSPECIFIED' ) ;
#121 = DIRECTION ( 'NONE',  ( 1.000000000000000000, 0.0000000000000000000, 0.0000000000000000000 ) ) ;
#122 = DIRECTION ( 'NONE',  ( 0.0000000000000000000, 0.0000000000000000000, 1.000000000000000000 ) ) ;
#123 = CARTESIAN_POINT ( 'NONE',  ( 0.0000000000000000000, 0.0000000000000000000, 0.5000000000000000000 ) ) ;
#124 = CARTESIAN_POINT ( 'NONE',  ( -5.000000000000004400, 0.0000000000000000000, 0.5000000000000000000 ) ) ;
#125 = CARTESIAN_POINT ( 'NONE',  ( 5.000000000000004400, 6.123233995736772200E-016, -0.5000000000000000000 ) ) ;
#126 = DATE_AND_TIME ( #49, #56 ) ;
#127 = APPROVAL_ROLE ( '' ) ;
#128 = VERTEX_POINT ( 'NONE', #111 ) ;
#129 = AXIS2_PLACEMENT_3D ( 'NONE', #160, #155, #163 ) ;
#130 = PRODUCT_DEFINITION_FORMATION_WITH_SPECIFIED_SOURCE ( 'ANY', '', #168, .NOT_KNOWN. ) ;
#131 = EDGE_LOOP ( 'NONE', ( #95, #29, #68, #175 ) ) ;
#132 = CC_DESIGN_DATE_AND_TIME_ASSIGNMENT ( #126, #63, ( #28 ) ) ;
#133 = COORDINATED_UNIVERSAL_TIME_OFFSET ( 5, 0, .BEHIND. ) ;
#134 = CARTESIAN_POINT ( 'NONE',  ( -5.000000000000004400, 0.0000000000000000000, -0.5000000000000000000 ) ) ;
#135 = DIRECTION ( 'NONE',  ( 1.000000000000000000, 0.0000000000000000000, 0.0000000000000000000 ) ) ;
#136 = APPROVAL_ROLE ( '' ) ;
#137 = AXIS2_PLACEMENT_3D ( 'NONE', #39, #41, #91 ) ;
#138 = CALENDAR_DATE ( 2017, 20, 7 ) ;
#139 = CC_DESIGN_PERSON_AND_ORGANIZATION_ASSIGNMENT ( #46, #93, ( #130 ) ) ;
#140 = LOCAL_TIME ( 8, 39, 56.00000000000000000, #104 ) ;
#141 = DIRECTION ( 'NONE',  ( 0.0000000000000000000, 0.0000000000000000000, 1.000000000000000000 ) ) ;
#142 = EDGE_CURVE ( 'NONE', #102, #78, #65, .T. ) ;
#143 = ORIENTED_EDGE ( 'NONE', *, *, #142, .F. ) ;
#144 =( GEOMETRIC_REPRESENTATION_CONTEXT ( 3 ) GLOBAL_UNCERTAINTY_ASSIGNED_CONTEXT ( ( #54 ) ) GLOBAL_UNIT_ASSIGNED_CONTEXT ( ( #61, #31, #30 ) ) REPRESENTATION_CONTEXT ( 'NONE', 'WORKASPACE' ) );
#145 = APPROVAL_STATUS ( 'not_yet_approved' ) ;
#146 = CARTESIAN_POINT ( 'NONE',  ( 0.0000000000000000000, 0.0000000000000000000, -0.5000000000000000000 ) ) ;
#147 = ADVANCED_FACE ( 'NONE', ( #117 ), #101, .T. ) ;
#148 = FACE_OUTER_BOUND ( 'NONE', #156, .T. ) ;
#149 = LOCAL_TIME ( 8, 39, 56.00000000000000000, #133 ) ;
#150 = APPLICATION_PROTOCOL_DEFINITION ( 'international standard', 'config_control_design', 1994, #2 ) ;
#151 = FACE_OUTER_BOUND ( 'NONE', #131, .T. ) ;
#152 = APPROVAL_DATE_TIME ( #171, #57 ) ;
#153 = CC_DESIGN_PERSON_AND_ORGANIZATION_ASSIGNMENT ( #106, #3, ( #130 ) ) ;
#154 = PERSON ( 'UNSPECIFIED', 'UNSPECIFIED', 'UNSPECIFIED', ('UNSPECIFIED'), ('UNSPECIFIED'), ('UNSPECIFIED') ) ;
#155 = DIRECTION ( 'NONE',  ( -0.0000000000000000000, -0.0000000000000000000, -1.000000000000000000 ) ) ;
#156 = EDGE_LOOP ( 'NONE', ( #83, #103, #22, #99 ) ) ;
#157 = DATE_AND_TIME ( #162, #53 ) ;
#158 = PERSON_AND_ORGANIZATION_ROLE ( 'creator' ) ;
#159 = ADVANCED_FACE ( 'NONE', ( #148 ), #70, .T. ) ;
#160 = CARTESIAN_POINT ( 'NONE',  ( 0.0000000000000000000, 0.0000000000000000000, 0.5000000000000000000 ) ) ;
#161 = CIRCLE ( 'NONE', #47, 5.000000000000004400 ) ;
#162 = CALENDAR_DATE ( 2017, 20, 7 ) ;
#163 = DIRECTION ( 'NONE',  ( -1.000000000000000000, 0.0000000000000000000, 0.0000000000000000000 ) ) ;
#164 = CC_DESIGN_PERSON_AND_ORGANIZATION_ASSIGNMENT ( #166, #7, ( #168 ) ) ;
#165 = ORIENTED_EDGE ( 'NONE', *, *, #72, .F. ) ;
#166 = PERSON_AND_ORGANIZATION ( #154, #66 ) ;
#167 = APPROVAL_DATE_TIME ( #59, #84 ) ;
#168 = PRODUCT ( '43366C_36487', '43366C_36487', '', ( #12 ) ) ;
#169 = PRODUCT_DEFINITION_SHAPE ( 'NONE', 'NONE',  #28 ) ;
#170 = CARTESIAN_POINT ( 'NONE',  ( 5.000000000000004400, 6.123233995736772200E-016, 0.5000000000000000000 ) ) ;
#171 = DATE_AND_TIME ( #100, #149 ) ;
#172 = PERSON_AND_ORGANIZATION_ROLE ( 'classification_officer' ) ;
#173 = DIRECTION ( 'NONE',  ( 0.0000000000000000000, 0.0000000000000000000, 1.000000000000000000 ) ) ;
#174 = PLANE ( 'NONE',  #87 ) ;
#175 = ORIENTED_EDGE ( 'NONE', *, *, #142, .T. ) ;
ENDSEC;
END-ISO-10303-21;
