ISO-10303-21;
HEADER;
FILE_DESCRIPTION (( 'STEP AP203' ),
    '1' );
FILE_NAME ('Web Model 45567_20841.step',
    '2022-03-15T17:12:11',
    ( '' ),
    ( '' ),
    'SwSTEP 2.0',
    'SolidWorks 2021',
    '' );
FILE_SCHEMA (( 'CONFIG_CONTROL_DESIGN' ));
ENDSEC;

DATA;
#1 = MECHANICAL_CONTEXT ( 'NONE', #143, 'mechanical' ) ;
#2 = APPROVAL_PERSON_ORGANIZATION ( #149, #62, #167 ) ;
#3 = ORIENTED_EDGE ( 'NONE', *, *, #124, .T. ) ;
#4 = CARTESIAN_POINT ( 'NONE',  ( 3.175000000000001155, 3.888253587292847561E-16, 2.000000000000000000 ) ) ;
#5 = EDGE_CURVE ( 'NONE', #91, #168, #125, .T. ) ;
#6 = PLANE ( 'NONE',  #103 ) ;
#7 = PERSON_AND_ORGANIZATION_ROLE ( 'classification_officer' ) ;
#8 = DIRECTION ( 'NONE',  ( 1.000000000000000000, 0.000000000000000000, -0.000000000000000000 ) ) ;
#9 = LOCAL_TIME ( 13, 12, 11.00000000000000000, #102 ) ;
#10 = CC_DESIGN_PERSON_AND_ORGANIZATION_ASSIGNMENT ( #73, #7, ( #13 ) ) ;
#11 = LINE ( 'NONE', #96, #163 ) ;
#12 = CALENDAR_DATE ( 2022, 15, 3 ) ;
#13 = SECURITY_CLASSIFICATION ( '', '', #170 ) ;
#14 = CARTESIAN_POINT ( 'NONE',  ( 0.000000000000000000, 0.000000000000000000, 2.000000000000000000 ) ) ;
#15 = APPROVAL_DATE_TIME ( #128, #66 ) ;
#16 = DATE_AND_TIME ( #173, #9 ) ;
#17 = DATE_AND_TIME ( #43, #21 ) ;
#18 = PRODUCT_DEFINITION_FORMATION_WITH_SPECIFIED_SOURCE ( 'ANY', '', #58, .NOT_KNOWN. ) ;
#19 = CIRCLE ( 'NONE', #120, 3.175000000000001155 ) ;
#20 = VERTEX_POINT ( 'NONE', #23 ) ;
#21 = LOCAL_TIME ( 13, 12, 11.00000000000000000, #158 ) ;
#22 = VECTOR ( 'NONE', #67, 1000.000000000000000 ) ;
#23 = CARTESIAN_POINT ( 'NONE',  ( -3.175000000000001155, 0.000000000000000000, 2.000000000000000000 ) ) ;
#24 = ORIENTED_EDGE ( 'NONE', *, *, #164, .T. ) ;
#25 = CARTESIAN_POINT ( 'NONE',  ( 0.000000000000000000, 0.000000000000000000, 0.000000000000000000 ) ) ;
#26 = DIRECTION ( 'NONE',  ( 0.000000000000000000, 0.000000000000000000, 1.000000000000000000 ) ) ;
#27 = FACE_OUTER_BOUND ( 'NONE', #51, .T. ) ;
#28 = PERSON_AND_ORGANIZATION ( #39, #54 ) ;
#29 = APPLICATION_CONTEXT ( 'configuration controlled 3d designs of mechanical parts and assemblies' ) ;
#30 = DESIGN_CONTEXT ( 'detailed design', #29, 'design' ) ;
#31 = ADVANCED_FACE ( 'NONE', ( #116 ), #6, .F. ) ;
#32 = ORIENTED_EDGE ( 'NONE', *, *, #124, .F. ) ;
#33 = ORIENTED_EDGE ( 'NONE', *, *, #5, .F. ) ;
#34 = CIRCLE ( 'NONE', #48, 3.175000000000001155 ) ;
#35 = APPROVAL_STATUS ( 'not_yet_approved' ) ;
#36 = FACE_OUTER_BOUND ( 'NONE', #127, .T. ) ;
#37 = FACE_OUTER_BOUND ( 'NONE', #52, .T. ) ;
#38 =( NAMED_UNIT ( * ) SI_UNIT ( $, .STERADIAN. ) SOLID_ANGLE_UNIT ( ) );
#39 = PERSON ( 'UNSPECIFIED', 'UNSPECIFIED', 'UNSPECIFIED', ('UNSPECIFIED'), ('UNSPECIFIED'), ('UNSPECIFIED') ) ;
#40 = EDGE_CURVE ( 'NONE', #20, #91, #34, .T. ) ;
#41 = CARTESIAN_POINT ( 'NONE',  ( 3.175000000000001155, 3.888253587292847561E-16, 2.000000000000000000 ) ) ;
#42 = PRODUCT_DEFINITION_SHAPE ( 'NONE', 'NONE',  #145 ) ;
#43 = CALENDAR_DATE ( 2022, 15, 3 ) ;
#44 = LOCAL_TIME ( 13, 12, 11.00000000000000000, #65 ) ;
#45 = CC_DESIGN_PERSON_AND_ORGANIZATION_ASSIGNMENT ( #146, #61, ( #58 ) ) ;
#46 = CC_DESIGN_SECURITY_CLASSIFICATION ( #13, ( #18 ) ) ;
#47 = DATE_AND_TIME ( #161, #50 ) ;
#48 = AXIS2_PLACEMENT_3D ( 'NONE', #70, #147, #82 ) ;
#49 = ORIENTED_EDGE ( 'NONE', *, *, #104, .T. ) ;
#50 = LOCAL_TIME ( 13, 12, 11.00000000000000000, #98 ) ;
#51 = EDGE_LOOP ( 'NONE', ( #81, #24 ) ) ;
#52 = EDGE_LOOP ( 'NONE', ( #169, #136, #49, #148 ) ) ;
#53 = PERSON_AND_ORGANIZATION_ROLE ( 'creator' ) ;
#54 = ORGANIZATION ( 'UNSPECIFIED', 'UNSPECIFIED', '' ) ;
#55 = DIRECTION ( 'NONE',  ( -0.000000000000000000, -0.000000000000000000, -1.000000000000000000 ) ) ;
#56 = DIRECTION ( 'NONE',  ( 1.000000000000000000, 0.000000000000000000, -0.000000000000000000 ) ) ;
#57 = PERSON_AND_ORGANIZATION ( #39, #54 ) ;
#58 = PRODUCT ( 'Web Model 45567_20841', 'Web Model 45567_20841', '', ( #1 ) ) ;
#59 = DIRECTION ( 'NONE',  ( 1.000000000000000000, 0.000000000000000000, 0.000000000000000000 ) ) ;
#60 = AXIS2_PLACEMENT_3D ( 'NONE', #14, #106, #75 ) ;
#61 = PERSON_AND_ORGANIZATION_ROLE ( 'design_owner' ) ;
#62 = APPROVAL ( #80, 'UNSPECIFIED' ) ;
#63 = MANIFOLD_SOLID_BREP ( 'Boss-Extrude1', #64 ) ;
#64 = CLOSED_SHELL ( 'NONE', ( #76, #140, #135, #31 ) ) ;
#65 = COORDINATED_UNIVERSAL_TIME_OFFSET ( 5, 0, .BEHIND. ) ;
#66 = APPROVAL ( #35, 'UNSPECIFIED' ) ;
#67 = DIRECTION ( 'NONE',  ( -0.000000000000000000, -0.000000000000000000, -1.000000000000000000 ) ) ;
#68 = CARTESIAN_POINT ( 'NONE',  ( 0.000000000000000000, 0.000000000000000000, 0.000000000000000000 ) ) ;
#69 = ADVANCED_BREP_SHAPE_REPRESENTATION ( 'Web Model 45567_20841', ( #63, #105 ), #141 ) ;
#70 = CARTESIAN_POINT ( 'NONE',  ( 0.000000000000000000, 0.000000000000000000, 2.000000000000000000 ) ) ;
#71 = CARTESIAN_POINT ( 'NONE',  ( 0.000000000000000000, 0.000000000000000000, 2.000000000000000000 ) ) ;
#72 = CARTESIAN_POINT ( 'NONE',  ( 0.000000000000000000, 0.000000000000000000, 2.000000000000000000 ) ) ;
#73 = PERSON_AND_ORGANIZATION ( #39, #54 ) ;
#74 = DATE_TIME_ROLE ( 'classification_date' ) ;
#75 = DIRECTION ( 'NONE',  ( -1.000000000000000000, 0.000000000000000000, 0.000000000000000000 ) ) ;
#76 = ADVANCED_FACE ( 'NONE', ( #37 ), #107, .T. ) ;
#77 = AXIS2_PLACEMENT_3D ( 'NONE', #25, #118, #129 ) ;
#78 = ORIENTED_EDGE ( 'NONE', *, *, #40, .F. ) ;
#79 = APPROVAL_PERSON_ORGANIZATION ( #28, #115, #109 ) ;
#80 = APPROVAL_STATUS ( 'not_yet_approved' ) ;
#81 = ORIENTED_EDGE ( 'NONE', *, *, #40, .T. ) ;
#82 = DIRECTION ( 'NONE',  ( 1.000000000000000000, 0.000000000000000000, 0.000000000000000000 ) ) ;
#83 = PERSON_AND_ORGANIZATION ( #39, #54 ) ;
#84 =( LENGTH_UNIT ( ) NAMED_UNIT ( * ) SI_UNIT ( .MILLI., .METRE. ) );
#85 = APPROVAL_DATE_TIME ( #166, #62 ) ;
#86 = CYLINDRICAL_SURFACE ( 'NONE', #60, 3.175000000000001155 ) ;
#87 = PLANE ( 'NONE',  #92 ) ;
#88 = AXIS2_PLACEMENT_3D ( 'NONE', #154, #172, #94 ) ;
#89 = APPLICATION_PROTOCOL_DEFINITION ( 'international standard', 'config_control_design', 1994, #143 ) ;
#90 = LOCAL_TIME ( 13, 12, 11.00000000000000000, #131 ) ;
#91 = VERTEX_POINT ( 'NONE', #41 ) ;
#92 = AXIS2_PLACEMENT_3D ( 'NONE', #71, #171, #56 ) ;
#93 = APPROVAL_ROLE ( '' ) ;
#94 = DIRECTION ( 'NONE',  ( 1.000000000000000000, 0.000000000000000000, 0.000000000000000000 ) ) ;
#95 = CARTESIAN_POINT ( 'NONE',  ( 3.175000000000001155, 3.888253587292847561E-16, 0.000000000000000000 ) ) ;
#96 = CARTESIAN_POINT ( 'NONE',  ( -3.175000000000001155, 0.000000000000000000, 2.000000000000000000 ) ) ;
#97 = CC_DESIGN_PERSON_AND_ORGANIZATION_ASSIGNMENT ( #174, #159, ( #145 ) ) ;
#98 = COORDINATED_UNIVERSAL_TIME_OFFSET ( 5, 0, .BEHIND. ) ;
#99 = DATE_TIME_ROLE ( 'creation_date' ) ;
#100 = CIRCLE ( 'NONE', #88, 3.175000000000001155 ) ;
#101 = DIRECTION ( 'NONE',  ( 0.000000000000000000, 0.000000000000000000, 1.000000000000000000 ) ) ;
#102 = COORDINATED_UNIVERSAL_TIME_OFFSET ( 5, 0, .BEHIND. ) ;
#103 = AXIS2_PLACEMENT_3D ( 'NONE', #68, #101, #8 ) ;
#104 = EDGE_CURVE ( 'NONE', #168, #151, #144, .T. ) ;
#105 = AXIS2_PLACEMENT_3D ( 'NONE', #123, #132, #59 ) ;
#106 = DIRECTION ( 'NONE',  ( -0.000000000000000000, -0.000000000000000000, -1.000000000000000000 ) ) ;
#107 = CYLINDRICAL_SURFACE ( 'NONE', #113, 3.175000000000001155 ) ;
#108 = PERSON_AND_ORGANIZATION_ROLE ( 'design_supplier' ) ;
#109 = APPROVAL_ROLE ( '' ) ;
#110 = CC_DESIGN_PERSON_AND_ORGANIZATION_ASSIGNMENT ( #119, #108, ( #18 ) ) ;
#111 = APPROVAL_DATE_TIME ( #17, #115 ) ;
#112 = APPROVAL_STATUS ( 'not_yet_approved' ) ;
#113 = AXIS2_PLACEMENT_3D ( 'NONE', #72, #157, #139 ) ;
#114 = CALENDAR_DATE ( 2022, 15, 3 ) ;
#115 = APPROVAL ( #112, 'UNSPECIFIED' ) ;
#116 = FACE_OUTER_BOUND ( 'NONE', #126, .T. ) ;
#117 = CC_DESIGN_PERSON_AND_ORGANIZATION_ASSIGNMENT ( #83, #53, ( #18 ) ) ;
#118 = DIRECTION ( 'NONE',  ( 0.000000000000000000, 0.000000000000000000, 1.000000000000000000 ) ) ;
#119 = PERSON_AND_ORGANIZATION ( #39, #54 ) ;
#120 = AXIS2_PLACEMENT_3D ( 'NONE', #155, #26, #142 ) ;
#121 = CC_DESIGN_DATE_AND_TIME_ASSIGNMENT ( #16, #74, ( #13 ) ) ;
#122 = APPLICATION_PROTOCOL_DEFINITION ( 'international standard', 'config_control_design', 1994, #29 ) ;
#123 = CARTESIAN_POINT ( 'NONE',  ( 0.000000000000000000, 0.000000000000000000, 0.000000000000000000 ) ) ;
#124 = EDGE_CURVE ( 'NONE', #151, #168, #19, .T. ) ;
#125 = LINE ( 'NONE', #4, #22 ) ;
#126 = EDGE_LOOP ( 'NONE', ( #32, #137 ) ) ;
#127 = EDGE_LOOP ( 'NONE', ( #33, #78, #165, #3 ) ) ;
#128 = DATE_AND_TIME ( #12, #90 ) ;
#129 = DIRECTION ( 'NONE',  ( 1.000000000000000000, 0.000000000000000000, 0.000000000000000000 ) ) ;
#130 =( NAMED_UNIT ( * ) PLANE_ANGLE_UNIT ( ) SI_UNIT ( $, .RADIAN. ) );
#131 = COORDINATED_UNIVERSAL_TIME_OFFSET ( 5, 0, .BEHIND. ) ;
#132 = DIRECTION ( 'NONE',  ( 0.000000000000000000, 0.000000000000000000, 1.000000000000000000 ) ) ;
#133 = EDGE_CURVE ( 'NONE', #20, #151, #11, .T. ) ;
#134 = CC_DESIGN_APPROVAL ( #62, ( #18 ) ) ;
#135 = ADVANCED_FACE ( 'NONE', ( #27 ), #87, .T. ) ;
#136 = ORIENTED_EDGE ( 'NONE', *, *, #5, .T. ) ;
#137 = ORIENTED_EDGE ( 'NONE', *, *, #104, .F. ) ;
#138 = SHAPE_DEFINITION_REPRESENTATION ( #42, #69 ) ;
#139 = DIRECTION ( 'NONE',  ( -1.000000000000000000, 0.000000000000000000, 0.000000000000000000 ) ) ;
#140 = ADVANCED_FACE ( 'NONE', ( #36 ), #86, .T. ) ;
#141 =( GEOMETRIC_REPRESENTATION_CONTEXT ( 3 ) GLOBAL_UNCERTAINTY_ASSIGNED_CONTEXT ( ( #156 ) ) GLOBAL_UNIT_ASSIGNED_CONTEXT ( ( #84, #130, #38 ) ) REPRESENTATION_CONTEXT ( 'NONE', 'WORKASPACE' ) );
#142 = DIRECTION ( 'NONE',  ( 1.000000000000000000, 0.000000000000000000, 0.000000000000000000 ) ) ;
#143 = APPLICATION_CONTEXT ( 'configuration controlled 3d designs of mechanical parts and assemblies' ) ;
#144 = CIRCLE ( 'NONE', #77, 3.175000000000001155 ) ;
#145 = PRODUCT_DEFINITION ( 'UNKNOWN', '', #18, #30 ) ;
#146 = PERSON_AND_ORGANIZATION ( #39, #54 ) ;
#147 = DIRECTION ( 'NONE',  ( 0.000000000000000000, 0.000000000000000000, 1.000000000000000000 ) ) ;
#148 = ORIENTED_EDGE ( 'NONE', *, *, #133, .F. ) ;
#149 = PERSON_AND_ORGANIZATION ( #39, #54 ) ;
#150 = CC_DESIGN_APPROVAL ( #66, ( #13 ) ) ;
#151 = VERTEX_POINT ( 'NONE', #152 ) ;
#152 = CARTESIAN_POINT ( 'NONE',  ( -3.175000000000001155, 0.000000000000000000, 0.000000000000000000 ) ) ;
#153 = APPROVAL_PERSON_ORGANIZATION ( #57, #66, #93 ) ;
#154 = CARTESIAN_POINT ( 'NONE',  ( 0.000000000000000000, 0.000000000000000000, 2.000000000000000000 ) ) ;
#155 = CARTESIAN_POINT ( 'NONE',  ( 0.000000000000000000, 0.000000000000000000, 0.000000000000000000 ) ) ;
#156 = UNCERTAINTY_MEASURE_WITH_UNIT (LENGTH_MEASURE( 1.000000000000000082E-05 ), #84, 'distance_accuracy_value', 'NONE');
#157 = DIRECTION ( 'NONE',  ( -0.000000000000000000, -0.000000000000000000, -1.000000000000000000 ) ) ;
#158 = COORDINATED_UNIVERSAL_TIME_OFFSET ( 5, 0, .BEHIND. ) ;
#159 = PERSON_AND_ORGANIZATION_ROLE ( 'creator' ) ;
#160 = CC_DESIGN_DATE_AND_TIME_ASSIGNMENT ( #47, #99, ( #145 ) ) ;
#161 = CALENDAR_DATE ( 2022, 15, 3 ) ;
#162 = CC_DESIGN_APPROVAL ( #115, ( #145 ) ) ;
#163 = VECTOR ( 'NONE', #55, 1000.000000000000000 ) ;
#164 = EDGE_CURVE ( 'NONE', #91, #20, #100, .T. ) ;
#165 = ORIENTED_EDGE ( 'NONE', *, *, #133, .T. ) ;
#166 = DATE_AND_TIME ( #114, #44 ) ;
#167 = APPROVAL_ROLE ( '' ) ;
#168 = VERTEX_POINT ( 'NONE', #95 ) ;
#169 = ORIENTED_EDGE ( 'NONE', *, *, #164, .F. ) ;
#170 = SECURITY_CLASSIFICATION_LEVEL ( 'unclassified' ) ;
#171 = DIRECTION ( 'NONE',  ( 0.000000000000000000, 0.000000000000000000, 1.000000000000000000 ) ) ;
#172 = DIRECTION ( 'NONE',  ( 0.000000000000000000, 0.000000000000000000, 1.000000000000000000 ) ) ;
#173 = CALENDAR_DATE ( 2022, 15, 3 ) ;
#174 = PERSON_AND_ORGANIZATION ( #39, #54 ) ;
#175 = PRODUCT_RELATED_PRODUCT_CATEGORY ( 'detail', '', ( #58 ) ) ;
ENDSEC;
END-ISO-10303-21;
