ISO-10303-21;
HEADER;
FILE_DESCRIPTION (( 'STEP AP203' ),
    '1' );
FILE_NAME ('Web Model 68369.STEP',
    '2017-01-31T19:49:54',
    ( '' ),
    ( '' ),
    'SwSTEP 2.0',
    'SolidWorks 2016',
    '' );
FILE_SCHEMA (( 'CONFIG_CONTROL_DESIGN' ));
ENDSEC;

DATA;
#1 = APPROVAL ( #177, 'UNSPECIFIED' ) ;
#2 = PERSON_AND_ORGANIZATION ( #219, #137 ) ;
#3 = ORIENTED_EDGE ( 'NONE', *, *, #98, .T. ) ;
#4 = AXIS2_PLACEMENT_3D ( 'NONE', #124, #24, #93 ) ;
#5 = LINE ( 'NONE', #94, #51 ) ;
#6 = AXIS2_PLACEMENT_3D ( 'NONE', #111, #223, #25 ) ;
#7 = EDGE_LOOP ( 'NONE', ( #71, #76, #100, #120 ) ) ;
#8 = DIRECTION ( 'NONE',  ( 1.000000000000000000, 1.387778780781445700E-016, -0.0000000000000000000 ) ) ;
#9 = EDGE_CURVE ( 'NONE', #14, #222, #204, .T. ) ;
#10 = PERSON_AND_ORGANIZATION ( #219, #137 ) ;
#11 = LINE ( 'NONE', #23, #138 ) ;
#12 =( NAMED_UNIT ( * ) SI_UNIT ( $, .STERADIAN. ) SOLID_ANGLE_UNIT ( ) );
#13 = DIRECTION ( 'NONE',  ( -1.000000000000000000, -1.387778780781445900E-016, 0.0000000000000000000 ) ) ;
#14 = VERTEX_POINT ( 'NONE', #155 ) ;
#15 = ORIENTED_EDGE ( 'NONE', *, *, #60, .F. ) ;
#16 = APPROVAL_STATUS ( 'not_yet_approved' ) ;
#17 = ORIENTED_EDGE ( 'NONE', *, *, #141, .T. ) ;
#18 = ORIENTED_EDGE ( 'NONE', *, *, #98, .F. ) ;
#19 = ADVANCED_FACE ( 'NONE', ( #154 ), #43, .T. ) ;
#20 = MANIFOLD_SOLID_BREP ( 'Extrude1', #110 ) ;
#21 = ORIENTED_EDGE ( 'NONE', *, *, #185, .F. ) ;
#22 = CC_DESIGN_PERSON_AND_ORGANIZATION_ASSIGNMENT ( #143, #59, ( #27 ) ) ;
#23 = CARTESIAN_POINT ( 'NONE',  ( -12.49999999999999500, -12.50000000000000400, 3.000000000000000000 ) ) ;
#24 = DIRECTION ( 'NONE',  ( -1.387778780781445400E-016, 1.000000000000000000, 0.0000000000000000000 ) ) ;
#25 = DIRECTION ( 'NONE',  ( -1.000000000000000000, 0.0000000000000000000, -0.0000000000000000000 ) ) ;
#26 = PLANE ( 'NONE',  #47 ) ;
#27 = PRODUCT_DEFINITION ( 'UNKNOWN', '', #202, #174 ) ;
#28 = PRODUCT ( 'Web Model 68369', 'Web Model 68369', '', ( #201 ) ) ;
#29 = CARTESIAN_POINT ( 'NONE',  ( -12.49999999999999800, 12.49999999999999600, 3.000000000000000000 ) ) ;
#30 = VERTEX_POINT ( 'NONE', #49 ) ;
#31 = DIRECTION ( 'NONE',  ( 1.000000000000000000, 1.387778780781445700E-016, -0.0000000000000000000 ) ) ;
#32 =( LENGTH_UNIT ( ) NAMED_UNIT ( * ) SI_UNIT ( .MILLI., .METRE. ) );
#33 = CC_DESIGN_PERSON_AND_ORGANIZATION_ASSIGNMENT ( #65, #35, ( #187 ) ) ;
#34 = DATE_AND_TIME ( #135, #45 ) ;
#35 = PERSON_AND_ORGANIZATION_ROLE ( 'classification_officer' ) ;
#36 = ORIENTED_EDGE ( 'NONE', *, *, #9, .T. ) ;
#37 = PERSON_AND_ORGANIZATION_ROLE ( 'design_supplier' ) ;
#38 = COORDINATED_UNIVERSAL_TIME_OFFSET ( 5, 0, .BEHIND. ) ;
#39 = LINE ( 'NONE', #197, #180 ) ;
#40 = VERTEX_POINT ( 'NONE', #156 ) ;
#41 = PERSON_AND_ORGANIZATION_ROLE ( 'creator' ) ;
#42 = PERSON_AND_ORGANIZATION ( #219, #137 ) ;
#43 = PLANE ( 'NONE',  #6 ) ;
#44 = COORDINATED_UNIVERSAL_TIME_OFFSET ( 5, 0, .BEHIND. ) ;
#45 = LOCAL_TIME ( 14, 49, 54.00000000000000000, #107 ) ;
#46 = ORIENTED_EDGE ( 'NONE', *, *, #171, .F. ) ;
#47 = AXIS2_PLACEMENT_3D ( 'NONE', #29, #58, #159 ) ;
#48 = AXIS2_PLACEMENT_3D ( 'NONE', #163, #175, #82 ) ;
#49 = CARTESIAN_POINT ( 'NONE',  ( 12.49999999999999500, 12.50000000000000000, 3.000000000000000000 ) ) ;
#50 = VECTOR ( 'NONE', #13, 1000.000000000000000 ) ;
#51 = VECTOR ( 'NONE', #128, 1000.000000000000000 ) ;
#52 = DIRECTION ( 'NONE',  ( -4.163336342344337000E-016, 1.000000000000000000, -0.0000000000000000000 ) ) ;
#53 = CARTESIAN_POINT ( 'NONE',  ( 12.50000000000000500, -12.50000000000000000, 0.0000000000000000000 ) ) ;
#54 = LOCAL_TIME ( 14, 49, 54.00000000000000000, #161 ) ;
#55 = CARTESIAN_POINT ( 'NONE',  ( -12.49999999999999800, 12.49999999999999600, 0.0000000000000000000 ) ) ;
#56 = CALENDAR_DATE ( 2017, 31, 1 ) ;
#57 = ORIENTED_EDGE ( 'NONE', *, *, #9, .F. ) ;
#58 = DIRECTION ( 'NONE',  ( 1.000000000000000000, 1.387778780781445400E-016, -0.0000000000000000000 ) ) ;
#59 = PERSON_AND_ORGANIZATION_ROLE ( 'creator' ) ;
#60 = EDGE_CURVE ( 'NONE', #205, #14, #11, .T. ) ;
#61 = DIRECTION ( 'NONE',  ( 0.0000000000000000000, 0.0000000000000000000, 1.000000000000000000 ) ) ;
#62 = APPLICATION_PROTOCOL_DEFINITION ( 'international standard', 'config_control_design', 1994, #200 ) ;
#63 = CC_DESIGN_APPROVAL ( #122, ( #27 ) ) ;
#64 = DATE_TIME_ROLE ( 'classification_date' ) ;
#65 = PERSON_AND_ORGANIZATION ( #219, #137 ) ;
#66 = ADVANCED_FACE ( 'NONE', ( #72 ), #74, .F. ) ;
#67 = ORIENTED_EDGE ( 'NONE', *, *, #178, .F. ) ;
#68 = PRODUCT_RELATED_PRODUCT_CATEGORY ( 'detail', '', ( #28 ) ) ;
#69 = PERSON_AND_ORGANIZATION ( #219, #137 ) ;
#70 = FACE_OUTER_BOUND ( 'NONE', #117, .T. ) ;
#71 = ORIENTED_EDGE ( 'NONE', *, *, #194, .T. ) ;
#72 = FACE_OUTER_BOUND ( 'NONE', #7, .T. ) ;
#73 = CARTESIAN_POINT ( 'NONE',  ( -12.49999999999999500, -12.50000000000000400, 3.000000000000000000 ) ) ;
#74 = PLANE ( 'NONE',  #167 ) ;
#75 = SHAPE_DEFINITION_REPRESENTATION ( #188, #212 ) ;
#76 = ORIENTED_EDGE ( 'NONE', *, *, #171, .T. ) ;
#77 = DIRECTION ( 'NONE',  ( -1.000000000000000000, 0.0000000000000000000, -0.0000000000000000000 ) ) ;
#78 = ORIENTED_EDGE ( 'NONE', *, *, #211, .T. ) ;
#79 = CARTESIAN_POINT ( 'NONE',  ( 12.49999999999999500, 12.50000000000000000, 0.0000000000000000000 ) ) ;
#80 = VERTEX_POINT ( 'NONE', #208 ) ;
#81 = CARTESIAN_POINT ( 'NONE',  ( -12.49999999999999800, 12.49999999999999600, 0.0000000000000000000 ) ) ;
#82 = DIRECTION ( 'NONE',  ( 4.163336342344336500E-016, -1.000000000000000000, 0.0000000000000000000 ) ) ;
#83 = CALENDAR_DATE ( 2017, 31, 1 ) ;
#84 = VECTOR ( 'NONE', #160, 1000.000000000000000 ) ;
#85 = ORIENTED_EDGE ( 'NONE', *, *, #178, .T. ) ;
#86 = ADVANCED_FACE ( 'NONE', ( #70 ), #140, .F. ) ;
#87 = CC_DESIGN_APPROVAL ( #1, ( #187 ) ) ;
#88 = APPROVAL ( #16, 'UNSPECIFIED' ) ;
#89 = VECTOR ( 'NONE', #8, 1000.000000000000000 ) ;
#90 = LINE ( 'NONE', #81, #166 ) ;
#91 = ORIENTED_EDGE ( 'NONE', *, *, #141, .F. ) ;
#92 = VECTOR ( 'NONE', #52, 1000.000000000000000 ) ;
#93 = DIRECTION ( 'NONE',  ( -1.000000000000000000, -1.387778780781445400E-016, 0.0000000000000000000 ) ) ;
#94 = CARTESIAN_POINT ( 'NONE',  ( -12.49999999999999800, 12.49999999999999600, 3.000000000000000000 ) ) ;
#95 = LINE ( 'NONE', #210, #92 ) ;
#96 = EDGE_LOOP ( 'NONE', ( #3, #67, #229, #109 ) ) ;
#97 = DIRECTION ( 'NONE',  ( -0.0000000000000000000, -0.0000000000000000000, -1.000000000000000000 ) ) ;
#98 = EDGE_CURVE ( 'NONE', #192, #207, #162, .T. ) ;
#99 = PLANE ( 'NONE',  #203 ) ;
#100 = ORIENTED_EDGE ( 'NONE', *, *, #185, .T. ) ;
#101 = CC_DESIGN_APPROVAL ( #88, ( #202 ) ) ;
#102 = DIRECTION ( 'NONE',  ( 1.000000000000000000, 0.0000000000000000000, 0.0000000000000000000 ) ) ;
#103 = CC_DESIGN_DATE_AND_TIME_ASSIGNMENT ( #165, #64, ( #187 ) ) ;
#104 = EDGE_LOOP ( 'NONE', ( #78, #15, #184, #85 ) ) ;
#105 = APPROVAL_ROLE ( '' ) ;
#106 = LOCAL_TIME ( 14, 49, 54.00000000000000000, #44 ) ;
#107 = COORDINATED_UNIVERSAL_TIME_OFFSET ( 5, 0, .BEHIND. ) ;
#108 = LINE ( 'NONE', #115, #113 ) ;
#109 = ORIENTED_EDGE ( 'NONE', *, *, #181, .T. ) ;
#110 = CLOSED_SHELL ( 'NONE', ( #134, #86, #136, #215, #66, #19 ) ) ;
#111 = CARTESIAN_POINT ( 'NONE',  ( -12.49999999999999500, -12.50000000000000400, 0.0000000000000000000 ) ) ;
#112 = CALENDAR_DATE ( 2017, 31, 1 ) ;
#113 = VECTOR ( 'NONE', #193, 1000.000000000000000 ) ;
#114 = DIRECTION ( 'NONE',  ( 1.387778780781445700E-016, -1.000000000000000000, 0.0000000000000000000 ) ) ;
#115 = CARTESIAN_POINT ( 'NONE',  ( 12.49999999999999500, 12.50000000000000000, 3.000000000000000000 ) ) ;
#116 = FACE_OUTER_BOUND ( 'NONE', #104, .T. ) ;
#117 = EDGE_LOOP ( 'NONE', ( #36, #139, #46, #129 ) ) ;
#118 = APPROVAL_ROLE ( '' ) ;
#119 = FACE_OUTER_BOUND ( 'NONE', #144, .T. ) ;
#120 = ORIENTED_EDGE ( 'NONE', *, *, #237, .T. ) ;
#121 = VECTOR ( 'NONE', #206, 1000.000000000000000 ) ;
#122 = APPROVAL ( #131, 'UNSPECIFIED' ) ;
#123 = ORIENTED_EDGE ( 'NONE', *, *, #216, .T. ) ;
#124 = CARTESIAN_POINT ( 'NONE',  ( 12.50000000000000500, -12.50000000000000000, 3.000000000000000000 ) ) ;
#125 = DIRECTION ( 'NONE',  ( 0.0000000000000000000, 0.0000000000000000000, -1.000000000000000000 ) ) ;
#126 = CARTESIAN_POINT ( 'NONE',  ( 12.49999999999999500, 12.50000000000000000, 0.0000000000000000000 ) ) ;
#127 = DIRECTION ( 'NONE',  ( 1.000000000000000000, 1.387778780781445900E-016, 0.0000000000000000000 ) ) ;
#128 = DIRECTION ( 'NONE',  ( 1.387778780781445700E-016, -1.000000000000000000, 0.0000000000000000000 ) ) ;
#129 = ORIENTED_EDGE ( 'NONE', *, *, #60, .T. ) ;
#130 = CARTESIAN_POINT ( 'NONE',  ( 0.0000000000000000000, 0.0000000000000000000, 0.0000000000000000000 ) ) ;
#131 = APPROVAL_STATUS ( 'not_yet_approved' ) ;
#132 = DATE_TIME_ROLE ( 'creation_date' ) ;
#133 = PERSON_AND_ORGANIZATION_ROLE ( 'design_owner' ) ;
#134 = ADVANCED_FACE ( 'NONE', ( #116 ), #26, .F. ) ;
#135 = CALENDAR_DATE ( 2017, 31, 1 ) ;
#136 = ADVANCED_FACE ( 'NONE', ( #119 ), #231, .F. ) ;
#137 = ORGANIZATION ( 'UNSPECIFIED', 'UNSPECIFIED', '' ) ;
#138 = VECTOR ( 'NONE', #142, 1000.000000000000000 ) ;
#139 = ORIENTED_EDGE ( 'NONE', *, *, #216, .F. ) ;
#140 = PLANE ( 'NONE',  #4 ) ;
#141 = EDGE_CURVE ( 'NONE', #222, #192, #95, .T. ) ;
#142 = DIRECTION ( 'NONE',  ( -0.0000000000000000000, -0.0000000000000000000, -1.000000000000000000 ) ) ;
#143 = PERSON_AND_ORGANIZATION ( #219, #137 ) ;
#144 = EDGE_LOOP ( 'NONE', ( #17, #234, #21, #123 ) ) ;
#145 = CARTESIAN_POINT ( 'NONE',  ( 12.50000000000000500, -12.50000000000000000, 3.000000000000000000 ) ) ;
#146 = CC_DESIGN_DATE_AND_TIME_ASSIGNMENT ( #183, #132, ( #27 ) ) ;
#147 = LINE ( 'NONE', #172, #50 ) ;
#148 =( NAMED_UNIT ( * ) PLANE_ANGLE_UNIT ( ) SI_UNIT ( $, .RADIAN. ) );
#149 = APPLICATION_CONTEXT ( 'configuration controlled 3d designs of mechanical parts and assemblies' ) ;
#150 = FACE_OUTER_BOUND ( 'NONE', #96, .T. ) ;
#151 = APPROVAL_PERSON_ORGANIZATION ( #10, #1, #105 ) ;
#152 = CC_DESIGN_PERSON_AND_ORGANIZATION_ASSIGNMENT ( #157, #41, ( #202 ) ) ;
#153 = LOCAL_TIME ( 14, 49, 54.00000000000000000, #228 ) ;
#154 = FACE_OUTER_BOUND ( 'NONE', #224, .T. ) ;
#155 = CARTESIAN_POINT ( 'NONE',  ( -12.49999999999999500, -12.50000000000000400, 0.0000000000000000000 ) ) ;
#156 = CARTESIAN_POINT ( 'NONE',  ( -12.49999999999999800, 12.49999999999999600, 3.000000000000000000 ) ) ;
#157 = PERSON_AND_ORGANIZATION ( #219, #137 ) ;
#158 = VECTOR ( 'NONE', #230, 1000.000000000000000 ) ;
#159 = DIRECTION ( 'NONE',  ( -1.387778780781445400E-016, 1.000000000000000000, 0.0000000000000000000 ) ) ;
#160 = DIRECTION ( 'NONE',  ( -0.0000000000000000000, -0.0000000000000000000, -1.000000000000000000 ) ) ;
#161 = COORDINATED_UNIVERSAL_TIME_OFFSET ( 5, 0, .BEHIND. ) ;
#162 = LINE ( 'NONE', #126, #121 ) ;
#163 = CARTESIAN_POINT ( 'NONE',  ( 12.49999999999999500, 12.50000000000000000, 3.000000000000000000 ) ) ;
#164 =( GEOMETRIC_REPRESENTATION_CONTEXT ( 3 ) GLOBAL_UNCERTAINTY_ASSIGNED_CONTEXT ( ( #191 ) ) GLOBAL_UNIT_ASSIGNED_CONTEXT ( ( #32, #148, #12 ) ) REPRESENTATION_CONTEXT ( 'NONE', 'WORKASPACE' ) );
#165 = DATE_AND_TIME ( #189, #54 ) ;
#166 = VECTOR ( 'NONE', #114, 1000.000000000000000 ) ;
#167 = AXIS2_PLACEMENT_3D ( 'NONE', #73, #125, #77 ) ;
#168 = CC_DESIGN_SECURITY_CLASSIFICATION ( #187, ( #202 ) ) ;
#169 = LINE ( 'NONE', #145, #84 ) ;
#170 = CARTESIAN_POINT ( 'NONE',  ( 12.49999999999999500, 12.50000000000000000, 3.000000000000000000 ) ) ;
#171 = EDGE_CURVE ( 'NONE', #205, #80, #39, .T. ) ;
#172 = CARTESIAN_POINT ( 'NONE',  ( 12.49999999999999500, 12.50000000000000000, 3.000000000000000000 ) ) ;
#173 = CARTESIAN_POINT ( 'NONE',  ( -12.49999999999999800, 12.49999999999999600, 3.000000000000000000 ) ) ;
#174 = DESIGN_CONTEXT ( 'detailed design', #200, 'design' ) ;
#175 = DIRECTION ( 'NONE',  ( -1.000000000000000000, -4.163336342344336500E-016, 0.0000000000000000000 ) ) ;
#176 = ORIENTED_EDGE ( 'NONE', *, *, #211, .F. ) ;
#177 = APPROVAL_STATUS ( 'not_yet_approved' ) ;
#178 = EDGE_CURVE ( 'NONE', #40, #207, #221, .T. ) ;
#179 = APPLICATION_PROTOCOL_DEFINITION ( 'international standard', 'config_control_design', 1994, #149 ) ;
#180 = VECTOR ( 'NONE', #31, 1000.000000000000000 ) ;
#181 = EDGE_CURVE ( 'NONE', #30, #192, #214, .T. ) ;
#182 = APPROVAL_DATE_TIME ( #232, #1 ) ;
#183 = DATE_AND_TIME ( #56, #220 ) ;
#184 = ORIENTED_EDGE ( 'NONE', *, *, #194, .F. ) ;
#185 = EDGE_CURVE ( 'NONE', #80, #30, #108, .T. ) ;
#186 = APPROVAL_DATE_TIME ( #217, #122 ) ;
#187 = SECURITY_CLASSIFICATION ( '', '', #235 ) ;
#188 = PRODUCT_DEFINITION_SHAPE ( 'NONE', 'NONE',  #27 ) ;
#189 = CALENDAR_DATE ( 2017, 31, 1 ) ;
#190 = APPROVAL_PERSON_ORGANIZATION ( #2, #88, #236 ) ;
#191 = UNCERTAINTY_MEASURE_WITH_UNIT (LENGTH_MEASURE( 1.000000000000000100E-005 ), #32, 'distance_accuracy_value', 'NONE');
#192 = VERTEX_POINT ( 'NONE', #79 ) ;
#193 = DIRECTION ( 'NONE',  ( -4.163336342344337000E-016, 1.000000000000000000, -0.0000000000000000000 ) ) ;
#194 = EDGE_CURVE ( 'NONE', #40, #205, #5, .T. ) ;
#195 = CARTESIAN_POINT ( 'NONE',  ( -12.49999999999999500, -12.50000000000000400, 3.000000000000000000 ) ) ;
#196 = DIRECTION ( 'NONE',  ( 1.387778780781445900E-016, -1.000000000000000000, 0.0000000000000000000 ) ) ;
#197 = CARTESIAN_POINT ( 'NONE',  ( 12.50000000000000500, -12.50000000000000000, 3.000000000000000000 ) ) ;
#198 = APPROVAL_DATE_TIME ( #34, #88 ) ;
#199 = APPROVAL_PERSON_ORGANIZATION ( #233, #122, #118 ) ;
#200 = APPLICATION_CONTEXT ( 'configuration controlled 3d designs of mechanical parts and assemblies' ) ;
#201 = MECHANICAL_CONTEXT ( 'NONE', #149, 'mechanical' ) ;
#202 = PRODUCT_DEFINITION_FORMATION_WITH_SPECIFIED_SOURCE ( 'ANY', '', #28, .NOT_KNOWN. ) ;
#203 = AXIS2_PLACEMENT_3D ( 'NONE', #170, #196, #127 ) ;
#204 = LINE ( 'NONE', #225, #89 ) ;
#205 = VERTEX_POINT ( 'NONE', #195 ) ;
#206 = DIRECTION ( 'NONE',  ( -1.000000000000000000, -1.387778780781445900E-016, 0.0000000000000000000 ) ) ;
#207 = VERTEX_POINT ( 'NONE', #55 ) ;
#208 = CARTESIAN_POINT ( 'NONE',  ( 12.50000000000000500, -12.50000000000000000, 3.000000000000000000 ) ) ;
#209 = CARTESIAN_POINT ( 'NONE',  ( 12.49999999999999500, 12.50000000000000000, 3.000000000000000000 ) ) ;
#210 = CARTESIAN_POINT ( 'NONE',  ( 12.49999999999999500, 12.50000000000000000, 0.0000000000000000000 ) ) ;
#211 = EDGE_CURVE ( 'NONE', #207, #14, #90, .T. ) ;
#212 = ADVANCED_BREP_SHAPE_REPRESENTATION ( 'Web Model 68369', ( #20, #213 ), #164 ) ;
#213 = AXIS2_PLACEMENT_3D ( 'NONE', #130, #61, #102 ) ;
#214 = LINE ( 'NONE', #209, #158 ) ;
#215 = ADVANCED_FACE ( 'NONE', ( #150 ), #99, .F. ) ;
#216 = EDGE_CURVE ( 'NONE', #80, #222, #169, .T. ) ;
#217 = DATE_AND_TIME ( #112, #153 ) ;
#218 = VECTOR ( 'NONE', #97, 1000.000000000000000 ) ;
#219 = PERSON ( 'UNSPECIFIED', 'UNSPECIFIED', 'UNSPECIFIED', ('UNSPECIFIED'), ('UNSPECIFIED'), ('UNSPECIFIED') ) ;
#220 = LOCAL_TIME ( 14, 49, 54.00000000000000000, #38 ) ;
#221 = LINE ( 'NONE', #173, #218 ) ;
#222 = VERTEX_POINT ( 'NONE', #53 ) ;
#223 = DIRECTION ( 'NONE',  ( 0.0000000000000000000, 0.0000000000000000000, -1.000000000000000000 ) ) ;
#224 = EDGE_LOOP ( 'NONE', ( #176, #18, #91, #57 ) ) ;
#225 = CARTESIAN_POINT ( 'NONE',  ( 12.50000000000000500, -12.50000000000000000, 0.0000000000000000000 ) ) ;
#226 = CC_DESIGN_PERSON_AND_ORGANIZATION_ASSIGNMENT ( #42, #37, ( #202 ) ) ;
#227 = CC_DESIGN_PERSON_AND_ORGANIZATION_ASSIGNMENT ( #69, #133, ( #28 ) ) ;
#228 = COORDINATED_UNIVERSAL_TIME_OFFSET ( 5, 0, .BEHIND. ) ;
#229 = ORIENTED_EDGE ( 'NONE', *, *, #237, .F. ) ;
#230 = DIRECTION ( 'NONE',  ( -0.0000000000000000000, -0.0000000000000000000, -1.000000000000000000 ) ) ;
#231 = PLANE ( 'NONE',  #48 ) ;
#232 = DATE_AND_TIME ( #83, #106 ) ;
#233 = PERSON_AND_ORGANIZATION ( #219, #137 ) ;
#234 = ORIENTED_EDGE ( 'NONE', *, *, #181, .F. ) ;
#235 = SECURITY_CLASSIFICATION_LEVEL ( 'unclassified' ) ;
#236 = APPROVAL_ROLE ( '' ) ;
#237 = EDGE_CURVE ( 'NONE', #30, #40, #147, .T. ) ;
ENDSEC;
END-ISO-10303-21;
