ISO-10303-21;
HEADER;
FILE_DESCRIPTION (( 'STEP AP214' ),
    '1' );
FILE_NAME ('4566-E0W.STEP',
    '2009-12-21T17:10:34',
    ( ' ' ),
    ( ' ' ),
    'SwSTEP 2.0',
    'SolidWorks 2009',
    '' );
FILE_SCHEMA (( 'AUTOMOTIVE_DESIGN' ));
ENDSEC;

DATA;
#1 = DIRECTION ( 'NONE',  ( 1.000000000000000000, 0.0000000000000000000, 0.0000000000000000000 ) ) ;
#2 = ADVANCED_FACE ( 'NONE', ( #100 ), #68, .T. ) ;
#3 = APPLICATION_CONTEXT ( 'automotive_design' ) ;
#4 = APPLICATION_PROTOCOL_DEFINITION ( 'draft international standard', 'automotive_design', 1998, #3 ) ;
#5 = VECTOR ( 'NONE', #6, 1000.000000000000000 ) ;
#6 = DIRECTION ( 'NONE',  ( -0.0000000000000000000, -0.0000000000000000000, 1.000000000000000000 ) ) ;
#7 = PRODUCT_CONTEXT ( 'NONE', #3, 'mechanical' ) ;
#8 = ORIENTED_EDGE ( 'NONE', *, *, #31, .T. ) ;
#9 = EDGE_CURVE ( 'NONE', #38, #50, #81, .T. ) ;
#10 = ORIENTED_EDGE ( 'NONE', *, *, #29, .T. ) ;
#11 = MANIFOLD_SOLID_BREP ( 'NONE', #33 ) ;
#12 = EDGE_CURVE ( 'NONE', #27, #34, #96, .T. ) ;
#13 = EDGE_CURVE ( 'NONE', #16, #45, #161, .T. ) ;
#14 = ADVANCED_FACE ( 'NONE', ( #158 ), #108, .T. ) ;
#15 = ORIENTED_EDGE ( 'NONE', *, *, #36, .T. ) ;
#16 = VERTEX_POINT ( 'NONE', #121 ) ;
#17 = ORIENTED_EDGE ( 'NONE', *, *, #22, .F. ) ;
#18 = ADVANCED_FACE ( 'NONE', ( #120 ), #124, .F. ) ;
#19 = EDGE_CURVE ( 'NONE', #38, #34, #144, .T. ) ;
#20 = ORIENTED_EDGE ( 'NONE', *, *, #36, .F. ) ;
#21 = ORIENTED_EDGE ( 'NONE', *, *, #19, .T. ) ;
#22 = EDGE_CURVE ( 'NONE', #34, #16, #106, .T. ) ;
#23 = ORIENTED_EDGE ( 'NONE', *, *, #32, .F. ) ;
#24 = EDGE_LOOP ( 'NONE', ( #28, #10, #30, #17, #37 ) ) ;
#25 = ORIENTED_EDGE ( 'NONE', *, *, #26, .T. ) ;
#26 = EDGE_CURVE ( 'NONE', #54, #27, #119, .T. ) ;
#27 = VERTEX_POINT ( 'NONE', #156 ) ;
#28 = ORIENTED_EDGE ( 'NONE', *, *, #9, .T. ) ;
#29 = EDGE_CURVE ( 'NONE', #50, #54, #155, .T. ) ;
#30 = ORIENTED_EDGE ( 'NONE', *, *, #31, .F. ) ;
#31 = EDGE_CURVE ( 'NONE', #16, #54, #169, .T. ) ;
#32 = EDGE_CURVE ( 'NONE', #50, #38, #180, .T. ) ;
#33 = CLOSED_SHELL ( 'NONE', ( #2, #44, #39, #14, #18 ) ) ;
#34 = VERTEX_POINT ( 'NONE', #167 ) ;
#35 = ORIENTED_EDGE ( 'NONE', *, *, #12, .T. ) ;
#36 = EDGE_CURVE ( 'NONE', #27, #45, #173, .T. ) ;
#37 = ORIENTED_EDGE ( 'NONE', *, *, #19, .F. ) ;
#38 = VERTEX_POINT ( 'NONE', #172 ) ;
#39 = ADVANCED_FACE ( 'NONE', ( #213 ), #189, .T. ) ;
#40 = ORIENTED_EDGE ( 'NONE', *, *, #22, .T. ) ;
#41 = ORIENTED_EDGE ( 'NONE', *, *, #32, .T. ) ;
#42 = ORIENTED_EDGE ( 'NONE', *, *, #29, .F. ) ;
#43 = ORIENTED_EDGE ( 'NONE', *, *, #9, .F. ) ;
#44 = ADVANCED_FACE ( 'NONE', ( #183 ), #230, .T. ) ;
#45 = VERTEX_POINT ( 'NONE', #221 ) ;
#46 = ORIENTED_EDGE ( 'NONE', *, *, #12, .F. ) ;
#47 = EDGE_LOOP ( 'NONE', ( #8, #25, #15, #53 ) ) ;
#48 = ORIENTED_EDGE ( 'NONE', *, *, #26, .F. ) ;
#49 = ORIENTED_EDGE ( 'NONE', *, *, #13, .T. ) ;
#50 = VERTEX_POINT ( 'NONE', #258 ) ;
#51 = EDGE_LOOP ( 'NONE', ( #43, #23 ) ) ;
#52 = EDGE_LOOP ( 'NONE', ( #20, #35, #40, #49 ) ) ;
#53 = ORIENTED_EDGE ( 'NONE', *, *, #13, .F. ) ;
#54 = VERTEX_POINT ( 'NONE', #245 ) ;
#55 = EDGE_LOOP ( 'NONE', ( #42, #41, #21, #46, #48 ) ) ;
#56 = SURFACE_STYLE_USAGE ( .BOTH. , #89 ) ;
#57 = DIRECTION ( 'NONE',  ( -0.0000000000000000000, -0.0000000000000000000, 1.000000000000000000 ) ) ;
#58 = DIRECTION ( 'NONE',  ( 1.000000000000000000, 0.0000000000000000000, 0.0000000000000000000 ) ) ;
#59 = CARTESIAN_POINT ( 'NONE',  ( 0.0000000000000000000, 0.0000000000000000000, 4.308132045400366600 ) ) ;
#60 = COLOUR_RGB ( '',0.7960784313725489700, 0.8235294117647058400, 0.9372549019607843100 ) ;
#61 = AXIS2_PLACEMENT_3D ( 'NONE', #59, #70, #76 ) ;
#62 = STYLED_ITEM ( 'NONE', ( #69 ), #2 ) ;
#63 =( GEOMETRIC_REPRESENTATION_CONTEXT ( 3 ) GLOBAL_UNCERTAINTY_ASSIGNED_CONTEXT ( ( #82 ) ) GLOBAL_UNIT_ASSIGNED_CONTEXT ( ( #80, #74, #65 ) ) REPRESENTATION_CONTEXT ( 'NONE', 'WORKASPACE' ) );
#64 = COLOUR_RGB ( '',0.9568627450980391500, 0.9490196078431372100, 0.9607843137254902200 ) ;
#65 =( NAMED_UNIT ( * ) SI_UNIT ( $, .STERADIAN. ) SOLID_ANGLE_UNIT ( ) );
#66 = SURFACE_SIDE_STYLE ('',( #72 ) ) ;
#67 = MECHANICAL_DESIGN_GEOMETRIC_PRESENTATION_REPRESENTATION (  '', ( #62 ), #63 ) ;
#68 = CYLINDRICAL_SURFACE ( 'NONE', #61, 4.500000000000000900 ) ;
#69 = PRESENTATION_STYLE_ASSIGNMENT (( #97 ) ) ;
#70 = DIRECTION ( 'NONE',  ( -0.0000000000000000000, -0.0000000000000000000, 1.000000000000000000 ) ) ;
#71 =( GEOMETRIC_REPRESENTATION_CONTEXT ( 3 ) GLOBAL_UNCERTAINTY_ASSIGNED_CONTEXT ( ( #92 ) ) GLOBAL_UNIT_ASSIGNED_CONTEXT ( ( #84, #87, #75 ) ) REPRESENTATION_CONTEXT ( 'NONE', 'WORKASPACE' ) );
#72 = SURFACE_STYLE_FILL_AREA ( #88 ) ;
#73 = FILL_AREA_STYLE_COLOUR ( '', #64 ) ;
#74 =( NAMED_UNIT ( * ) PLANE_ANGLE_UNIT ( ) SI_UNIT ( $, .RADIAN. ) );
#75 =( NAMED_UNIT ( * ) SI_UNIT ( $, .STERADIAN. ) SOLID_ANGLE_UNIT ( ) );
#76 = DIRECTION ( 'NONE',  ( 1.000000000000000000, 0.0000000000000000000, 0.0000000000000000000 ) ) ;
#77 = AXIS2_PLACEMENT_3D ( 'NONE', #79, #57, #58 ) ;
#78 = MECHANICAL_DESIGN_GEOMETRIC_PRESENTATION_REPRESENTATION (  '', ( #99 ), #71 ) ;
#79 = CARTESIAN_POINT ( 'NONE',  ( 0.0000000000000000000, 0.0000000000000000000, -1.720000000000000200 ) ) ;
#80 =( LENGTH_UNIT ( ) NAMED_UNIT ( * ) SI_UNIT ( .MILLI., .METRE. ) );
#81 = CIRCLE ( 'NONE', #77, 4.500000000000000900 ) ;
#82 = UNCERTAINTY_MEASURE_WITH_UNIT (LENGTH_MEASURE( 1.000000000000000100E-005 ), #80, 'distance_accuracy_value', 'NONE');
#83 = FILL_AREA_STYLE ('',( #85 ) ) ;
#84 =( LENGTH_UNIT ( ) NAMED_UNIT ( * ) SI_UNIT ( .MILLI., .METRE. ) );
#85 = FILL_AREA_STYLE_COLOUR ( '', #60 ) ;
#86 = PRESENTATION_STYLE_ASSIGNMENT (( #56 ) ) ;
#87 =( NAMED_UNIT ( * ) PLANE_ANGLE_UNIT ( ) SI_UNIT ( $, .RADIAN. ) );
#88 = FILL_AREA_STYLE ('',( #73 ) ) ;
#89 = SURFACE_SIDE_STYLE ('',( #91 ) ) ;
#90 = PRESENTATION_LAYER_ASSIGNMENT (  '', '', ( #62 ) ) ;
#91 = SURFACE_STYLE_FILL_AREA ( #83 ) ;
#92 = UNCERTAINTY_MEASURE_WITH_UNIT (LENGTH_MEASURE( 1.000000000000000100E-005 ), #84, 'distance_accuracy_value', 'NONE');
#93 = DIRECTION ( 'NONE',  ( -0.0000000000000000000, -0.0000000000000000000, 1.000000000000000000 ) ) ;
#94 = CARTESIAN_POINT ( 'NONE',  ( 0.0000000000000000000, 0.0000000000000000000, -0.2241529772665290200 ) ) ;
#95 = AXIS2_PLACEMENT_3D ( 'NONE', #94, #93, #1 ) ;
#96 = CIRCLE ( 'NONE', #95, 4.500000000000000900 ) ;
#97 = SURFACE_STYLE_USAGE ( .BOTH. , #66 ) ;
#98 = PRESENTATION_LAYER_ASSIGNMENT (  '', '', ( #99 ) ) ;
#99 = STYLED_ITEM ( 'NONE', ( #86 ), #11 ) ;
#100 = FACE_OUTER_BOUND ( 'NONE', #24, .T. ) ;
#101 = MECHANICAL_DESIGN_GEOMETRIC_PRESENTATION_REPRESENTATION (  '', ( #103 ), #129 ) ;
#102 = PRESENTATION_LAYER_ASSIGNMENT (  '', '', ( #103 ) ) ;
#103 = STYLED_ITEM ( 'NONE', ( #149 ), #18 ) ;
#104 = SURFACE_SIDE_STYLE ('',( #125 ) ) ;
#105 = CARTESIAN_POINT ( 'NONE',  ( 0.0000000000000000000, 0.0000000000000000000, -0.2241529772665290200 ) ) ;
#106 = CIRCLE ( 'NONE', #135, 4.500000000000000900 ) ;
#107 = DIRECTION ( 'NONE',  ( 1.000000000000000000, 0.0000000000000000000, 0.0000000000000000000 ) ) ;
#108 = CYLINDRICAL_SURFACE ( 'NONE', #123, 4.500000000000000900 ) ;
#109 = CARTESIAN_POINT ( 'NONE',  ( 0.0000000000000000000, 0.0000000000000000000, 4.308132045400366600 ) ) ;
#110 = FILL_AREA_STYLE ('',( #111 ) ) ;
#111 = FILL_AREA_STYLE_COLOUR ( '', #112 ) ;
#112 = COLOUR_RGB ( '',0.9568627450980391500, 0.9490196078431372100, 0.9607843137254902200 ) ;
#113 = DIRECTION ( 'NONE',  ( 0.0000000000000000000, 0.0000000000000000000, -1.000000000000000000 ) ) ;
#114 = FILL_AREA_STYLE_COLOUR ( '', #145 ) ;
#115 = DIRECTION ( 'NONE',  ( 1.000000000000000000, 0.0000000000000000000, 0.0000000000000000000 ) ) ;
#116 = DIRECTION ( 'NONE',  ( -0.0000000000000000000, -0.0000000000000000000, 1.000000000000000000 ) ) ;
#117 = CARTESIAN_POINT ( 'NONE',  ( 0.0000000000000000000, 0.0000000000000000000, -0.2241529772665290200 ) ) ;
#118 = AXIS2_PLACEMENT_3D ( 'NONE', #117, #116, #115 ) ;
#119 = CIRCLE ( 'NONE', #118, 4.500000000000000900 ) ;
#120 = FACE_OUTER_BOUND ( 'NONE', #51, .T. ) ;
#121 = CARTESIAN_POINT ( 'NONE',  ( 0.0000000000000000000, 4.500000000000000900, -0.2241529772665294400 ) ) ;
#122 = DIRECTION ( 'NONE',  ( 1.000000000000000000, 0.0000000000000000000, 0.0000000000000000000 ) ) ;
#123 = AXIS2_PLACEMENT_3D ( 'NONE', #109, #148, #122 ) ;
#124 = PLANE ( 'NONE',  #140 ) ;
#125 = SURFACE_STYLE_FILL_AREA ( #157 ) ;
#126 =( LENGTH_UNIT ( ) NAMED_UNIT ( * ) SI_UNIT ( .MILLI., .METRE. ) );
#127 =( GEOMETRIC_REPRESENTATION_CONTEXT ( 3 ) GLOBAL_UNCERTAINTY_ASSIGNED_CONTEXT ( ( #132 ) ) GLOBAL_UNIT_ASSIGNED_CONTEXT ( ( #126, #162, #131 ) ) REPRESENTATION_CONTEXT ( 'NONE', 'WORKASPACE' ) );
#128 = CARTESIAN_POINT ( 'NONE',  ( 0.0000000000000000000, 0.0000000000000000000, -4.460000000000001700 ) ) ;
#129 =( GEOMETRIC_REPRESENTATION_CONTEXT ( 3 ) GLOBAL_UNCERTAINTY_ASSIGNED_CONTEXT ( ( #146 ) ) GLOBAL_UNIT_ASSIGNED_CONTEXT ( ( #130, #165, #147 ) ) REPRESENTATION_CONTEXT ( 'NONE', 'WORKASPACE' ) );
#130 =( LENGTH_UNIT ( ) NAMED_UNIT ( * ) SI_UNIT ( .MILLI., .METRE. ) );
#131 =( NAMED_UNIT ( * ) SI_UNIT ( $, .STERADIAN. ) SOLID_ANGLE_UNIT ( ) );
#132 = UNCERTAINTY_MEASURE_WITH_UNIT (LENGTH_MEASURE( 1.000000000000000100E-005 ), #126, 'distance_accuracy_value', 'NONE');
#133 = DIRECTION ( 'NONE',  ( 1.000000000000000000, 0.0000000000000000000, 0.0000000000000000000 ) ) ;
#134 = DIRECTION ( 'NONE',  ( -0.0000000000000000000, -0.0000000000000000000, 1.000000000000000000 ) ) ;
#135 = AXIS2_PLACEMENT_3D ( 'NONE', #105, #134, #133 ) ;
#136 = AXIS2_PLACEMENT_3D ( 'NONE', #128, #107, #113 ) ;
#137 = DIRECTION ( 'NONE',  ( 1.000000000000000000, 0.0000000000000000000, 0.0000000000000000000 ) ) ;
#138 = DIRECTION ( 'NONE',  ( 0.0000000000000000000, -0.0000000000000000000, 1.000000000000000000 ) ) ;
#139 = CARTESIAN_POINT ( 'NONE',  ( 0.0000000000000000000, 6.319177483600342400E-016, -1.720000000000000000 ) ) ;
#140 = AXIS2_PLACEMENT_3D ( 'NONE', #139, #138, #137 ) ;
#141 = DIRECTION ( 'NONE',  ( -0.0000000000000000000, -0.0000000000000000000, 1.000000000000000000 ) ) ;
#142 = VECTOR ( 'NONE', #141, 1000.000000000000000 ) ;
#143 = CARTESIAN_POINT ( 'NONE',  ( 4.500000000000000900, 0.0000000000000000000, 4.308132045400366600 ) ) ;
#144 = LINE ( 'NONE', #143, #142 ) ;
#145 = COLOUR_RGB ( '',0.9568627450980391500, 0.9490196078431372100, 0.9607843137254902200 ) ;
#146 = UNCERTAINTY_MEASURE_WITH_UNIT (LENGTH_MEASURE( 1.000000000000000100E-005 ), #130, 'distance_accuracy_value', 'NONE');
#147 =( NAMED_UNIT ( * ) SI_UNIT ( $, .STERADIAN. ) SOLID_ANGLE_UNIT ( ) );
#148 = DIRECTION ( 'NONE',  ( -0.0000000000000000000, -0.0000000000000000000, 1.000000000000000000 ) ) ;
#149 = PRESENTATION_STYLE_ASSIGNMENT (( #150 ) ) ;
#150 = SURFACE_STYLE_USAGE ( .BOTH. , #151 ) ;
#151 = SURFACE_SIDE_STYLE ('',( #152 ) ) ;
#152 = SURFACE_STYLE_FILL_AREA ( #110 ) ;
#153 = PRESENTATION_STYLE_ASSIGNMENT (( #159 ) ) ;
#154 = CARTESIAN_POINT ( 'NONE',  ( -4.500000000000000900, 5.510728592200698600E-016, 4.308132045400366600 ) ) ;
#155 = LINE ( 'NONE', #154, #5 ) ;
#156 = CARTESIAN_POINT ( 'NONE',  ( -5.510728592200698600E-016, -4.500000000000000900, -0.2241529772665294400 ) ) ;
#157 = FILL_AREA_STYLE ('',( #114 ) ) ;
#158 = FACE_OUTER_BOUND ( 'NONE', #55, .T. ) ;
#159 = SURFACE_STYLE_USAGE ( .BOTH. , #104 ) ;
#160 = MECHANICAL_DESIGN_GEOMETRIC_PRESENTATION_REPRESENTATION (  '', ( #163 ), #127 ) ;
#161 = CIRCLE ( 'NONE', #136, 6.180000000000001500 ) ;
#162 =( NAMED_UNIT ( * ) PLANE_ANGLE_UNIT ( ) SI_UNIT ( $, .RADIAN. ) );
#163 = STYLED_ITEM ( 'NONE', ( #153 ), #14 ) ;
#164 = PRESENTATION_LAYER_ASSIGNMENT (  '', '', ( #163 ) ) ;
#165 =( NAMED_UNIT ( * ) PLANE_ANGLE_UNIT ( ) SI_UNIT ( $, .RADIAN. ) );
#166 = SURFACE_STYLE_FILL_AREA ( #193 ) ;
#167 = CARTESIAN_POINT ( 'NONE',  ( 4.500000000000000900, 0.0000000000000000000, -0.2241529772665290200 ) ) ;
#168 = UNCERTAINTY_MEASURE_WITH_UNIT (LENGTH_MEASURE( 1.000000000000000100E-005 ), #178, 'distance_accuracy_value', 'NONE');
#169 = CIRCLE ( 'NONE', #196, 4.500000000000000900 ) ;
#170 = DIRECTION ( 'NONE',  ( -0.0000000000000000000, -0.0000000000000000000, 1.000000000000000000 ) ) ;
#171 = STYLED_ITEM ( 'NONE', ( #192 ), #39 ) ;
#172 = CARTESIAN_POINT ( 'NONE',  ( 4.500000000000000900, 0.0000000000000000000, -1.720000000000000200 ) ) ;
#173 = CIRCLE ( 'NONE', #202, 6.180000000000002400 ) ;
#174 = MECHANICAL_DESIGN_GEOMETRIC_PRESENTATION_REPRESENTATION (  '', ( #171 ), #190 ) ;
#175 = CARTESIAN_POINT ( 'NONE',  ( 0.0000000000000000000, 0.0000000000000000000, -0.2241529772665290200 ) ) ;
#176 = DIRECTION ( 'NONE',  ( 1.000000000000000000, 0.0000000000000000000, 0.0000000000000000000 ) ) ;
#177 = CARTESIAN_POINT ( 'NONE',  ( 0.0000000000000000000, 0.0000000000000000000, -4.460000000000001700 ) ) ;
#178 =( LENGTH_UNIT ( ) NAMED_UNIT ( * ) SI_UNIT ( .MILLI., .METRE. ) );
#179 = SURFACE_SIDE_STYLE ('',( #166 ) ) ;
#180 = CIRCLE ( 'NONE', #212, 4.500000000000000900 ) ;
#181 = PRESENTATION_LAYER_ASSIGNMENT (  '', '', ( #171 ) ) ;
#182 = COLOUR_RGB ( '',0.9568627450980391500, 0.9490196078431372100, 0.9607843137254902200 ) ;
#183 = FACE_OUTER_BOUND ( 'NONE', #47, .T. ) ;
#184 = DIRECTION ( 'NONE',  ( 0.0000000000000000000, 1.000000000000000000, 0.0000000000000000000 ) ) ;
#185 = DIRECTION ( 'NONE',  ( -1.000000000000000000, 0.0000000000000000000, 0.0000000000000000000 ) ) ;
#186 = UNCERTAINTY_MEASURE_WITH_UNIT (LENGTH_MEASURE( 1.000000000000000100E-005 ), #204, 'distance_accuracy_value', 'NONE');
#187 =( NAMED_UNIT ( * ) SI_UNIT ( $, .STERADIAN. ) SOLID_ANGLE_UNIT ( ) );
#188 = DIRECTION ( 'NONE',  ( -1.224606353822377300E-016, -1.000000000000000000, 0.0000000000000000000 ) ) ;
#189 = SPHERICAL_SURFACE ( 'NONE', #207, 6.180000000000002400 ) ;
#190 =( GEOMETRIC_REPRESENTATION_CONTEXT ( 3 ) GLOBAL_UNCERTAINTY_ASSIGNED_CONTEXT ( ( #168 ) ) GLOBAL_UNIT_ASSIGNED_CONTEXT ( ( #178, #201, #203 ) ) REPRESENTATION_CONTEXT ( 'NONE', 'WORKASPACE' ) );
#191 = FILL_AREA_STYLE_COLOUR ( '', #219 ) ;
#192 = PRESENTATION_STYLE_ASSIGNMENT (( #198 ) ) ;
#193 = FILL_AREA_STYLE ('',( #191 ) ) ;
#194 =( GEOMETRIC_REPRESENTATION_CONTEXT ( 3 ) GLOBAL_UNCERTAINTY_ASSIGNED_CONTEXT ( ( #186 ) ) GLOBAL_UNIT_ASSIGNED_CONTEXT ( ( #204, #199, #187 ) ) REPRESENTATION_CONTEXT ( 'NONE', 'WORKASPACE' ) );
#195 = DIRECTION ( 'NONE',  ( -1.000000000000000000, 1.224606353822377300E-016, 0.0000000000000000000 ) ) ;
#196 = AXIS2_PLACEMENT_3D ( 'NONE', #175, #208, #200 ) ;
#197 = CARTESIAN_POINT ( 'NONE',  ( 0.0000000000000000000, 0.0000000000000000000, -1.720000000000000200 ) ) ;
#198 = SURFACE_STYLE_USAGE ( .BOTH. , #179 ) ;
#199 =( NAMED_UNIT ( * ) PLANE_ANGLE_UNIT ( ) SI_UNIT ( $, .RADIAN. ) );
#200 = DIRECTION ( 'NONE',  ( 1.000000000000000000, 0.0000000000000000000, 0.0000000000000000000 ) ) ;
#201 =( NAMED_UNIT ( * ) PLANE_ANGLE_UNIT ( ) SI_UNIT ( $, .RADIAN. ) );
#202 = AXIS2_PLACEMENT_3D ( 'NONE', #177, #195, #188 ) ;
#203 =( NAMED_UNIT ( * ) SI_UNIT ( $, .STERADIAN. ) SOLID_ANGLE_UNIT ( ) );
#204 =( LENGTH_UNIT ( ) NAMED_UNIT ( * ) SI_UNIT ( .MILLI., .METRE. ) );
#205 = MECHANICAL_DESIGN_GEOMETRIC_PRESENTATION_REPRESENTATION (  '', ( #215 ), #194 ) ;
#206 = CARTESIAN_POINT ( 'NONE',  ( 0.0000000000000000000, 0.0000000000000000000, -4.460000000000001700 ) ) ;
#207 = AXIS2_PLACEMENT_3D ( 'NONE', #206, #185, #184 ) ;
#208 = DIRECTION ( 'NONE',  ( -0.0000000000000000000, -0.0000000000000000000, 1.000000000000000000 ) ) ;
#209 = SURFACE_STYLE_FILL_AREA ( #210 ) ;
#210 = FILL_AREA_STYLE ('',( #211 ) ) ;
#211 = FILL_AREA_STYLE_COLOUR ( '', #182 ) ;
#212 = AXIS2_PLACEMENT_3D ( 'NONE', #197, #170, #176 ) ;
#213 = FACE_OUTER_BOUND ( 'NONE', #52, .T. ) ;
#214 = PRESENTATION_LAYER_ASSIGNMENT (  '', '', ( #215 ) ) ;
#215 = STYLED_ITEM ( 'NONE', ( #216 ), #44 ) ;
#216 = PRESENTATION_STYLE_ASSIGNMENT (( #217 ) ) ;
#217 = SURFACE_STYLE_USAGE ( .BOTH. , #218 ) ;
#218 = SURFACE_SIDE_STYLE ('',( #209 ) ) ;
#219 = COLOUR_RGB ( '',0.9568627450980391500, 0.9490196078431372100, 0.9607843137254902200 ) ;
#220 =( NAMED_UNIT ( * ) SI_UNIT ( $, .STERADIAN. ) SOLID_ANGLE_UNIT ( ) );
#221 = CARTESIAN_POINT ( 'NONE',  ( 0.0000000000000000000, 3.784033633311147400E-016, 1.720000000000000200 ) ) ;
#222 = UNCERTAINTY_MEASURE_WITH_UNIT (LENGTH_MEASURE( 1.000000000000000100E-005 ), #244, 'distance_accuracy_value', 'NONE');
#223 = AXIS2_PLACEMENT_3D ( 'NONE', #243, #256, #224 ) ;
#224 = DIRECTION ( 'NONE',  ( 0.0000000000000000000, 1.000000000000000000, 0.0000000000000000000 ) ) ;
#225 =( NAMED_UNIT ( * ) PLANE_ANGLE_UNIT ( ) SI_UNIT ( $, .RADIAN. ) );
#226 = UNCERTAINTY_MEASURE_WITH_UNIT (LENGTH_MEASURE( 1.000000000000000100E-005 ), #257, 'distance_accuracy_value', 'NONE');
#227 = SHAPE_DEFINITION_REPRESENTATION ( #234, #259 ) ;
#228 = PRODUCT_DEFINITION ( 'UNKNOWN', '', #236, #229 ) ;
#229 = PRODUCT_DEFINITION_CONTEXT ( 'detailed design', #232, 'design' ) ;
#230 = SPHERICAL_SURFACE ( 'NONE', #223, 6.180000000000002400 ) ;
#231 = APPLICATION_PROTOCOL_DEFINITION ( 'draft international standard', 'automotive_design', 1998, #232 ) ;
#232 = APPLICATION_CONTEXT ( 'automotive_design' ) ;
#233 =( NAMED_UNIT ( * ) PLANE_ANGLE_UNIT ( ) SI_UNIT ( $, .RADIAN. ) );
#234 = PRODUCT_DEFINITION_SHAPE ( 'NONE', 'NONE',  #228 ) ;
#235 = PRODUCT_RELATED_PRODUCT_CATEGORY ( 'part', '', ( #242 ) ) ;
#236 = PRODUCT_DEFINITION_FORMATION_WITH_SPECIFIED_SOURCE ( 'ANY', '', #242, .NOT_KNOWN. ) ;
#237 = DIRECTION ( 'NONE',  ( 1.000000000000000000, 0.0000000000000000000, 0.0000000000000000000 ) ) ;
#238 =( GEOMETRIC_REPRESENTATION_CONTEXT ( 3 ) GLOBAL_UNCERTAINTY_ASSIGNED_CONTEXT ( ( #226 ) ) GLOBAL_UNIT_ASSIGNED_CONTEXT ( ( #257, #233, #251 ) ) REPRESENTATION_CONTEXT ( 'NONE', 'WORKASPACE' ) );
#239 = COLOUR_RGB ( '',0.7960784313725489700, 0.8235294117647058400, 0.9372549019607843100 ) ;
#240 = MECHANICAL_DESIGN_GEOMETRIC_PRESENTATION_REPRESENTATION (  '', ( #252 ), #261 ) ;
#241 = PRESENTATION_LAYER_ASSIGNMENT (  '', '', ( #252 ) ) ;
#242 = PRODUCT ( '4566-E0W', '4566-E0W', '', ( #7 ) ) ;
#243 = CARTESIAN_POINT ( 'NONE',  ( 0.0000000000000000000, 0.0000000000000000000, -4.460000000000001700 ) ) ;
#244 =( LENGTH_UNIT ( ) NAMED_UNIT ( * ) SI_UNIT ( .MILLI., .METRE. ) );
#245 = CARTESIAN_POINT ( 'NONE',  ( -4.500000000000000900, 5.510728592200698600E-016, -0.2241529772665290200 ) ) ;
#246 = SURFACE_SIDE_STYLE ('',( #247 ) ) ;
#247 = SURFACE_STYLE_FILL_AREA ( #248 ) ;
#248 = FILL_AREA_STYLE ('',( #249 ) ) ;
#249 = FILL_AREA_STYLE_COLOUR ( '', #239 ) ;
#250 = AXIS2_PLACEMENT_3D ( 'NONE', #260, #255, #237 ) ;
#251 =( NAMED_UNIT ( * ) SI_UNIT ( $, .STERADIAN. ) SOLID_ANGLE_UNIT ( ) );
#252 = STYLED_ITEM ( 'NONE', ( #253 ), #259 ) ;
#253 = PRESENTATION_STYLE_ASSIGNMENT (( #254 ) ) ;
#254 = SURFACE_STYLE_USAGE ( .BOTH. , #246 ) ;
#255 = DIRECTION ( 'NONE',  ( 0.0000000000000000000, 0.0000000000000000000, 1.000000000000000000 ) ) ;
#256 = DIRECTION ( 'NONE',  ( -1.000000000000000000, 0.0000000000000000000, 0.0000000000000000000 ) ) ;
#257 =( LENGTH_UNIT ( ) NAMED_UNIT ( * ) SI_UNIT ( .MILLI., .METRE. ) );
#258 = CARTESIAN_POINT ( 'NONE',  ( -4.500000000000000900, 5.510728592200698600E-016, -1.720000000000000200 ) ) ;
#259 = ADVANCED_BREP_SHAPE_REPRESENTATION ( '4566-E0W', ( #11, #250 ), #238 ) ;
#260 = CARTESIAN_POINT ( 'NONE',  ( 0.0000000000000000000, 0.0000000000000000000, 0.0000000000000000000 ) ) ;
#261 =( GEOMETRIC_REPRESENTATION_CONTEXT ( 3 ) GLOBAL_UNCERTAINTY_ASSIGNED_CONTEXT ( ( #222 ) ) GLOBAL_UNIT_ASSIGNED_CONTEXT ( ( #244, #225, #220 ) ) REPRESENTATION_CONTEXT ( 'NONE', 'WORKASPACE' ) );
ENDSEC;
END-ISO-10303-21;
