ISO-10303-21;
HEADER;
FILE_DESCRIPTION (( 'STEP AP203' ),
    '1' );
FILE_NAME ('Web Model 45076_13319.step',
    '2020-11-03T21:50:59',
    ( '' ),
    ( '' ),
    'SwSTEP 2.0',
    'SolidWorks 2018',
    '' );
FILE_SCHEMA (( 'CONFIG_CONTROL_DESIGN' ));
ENDSEC;

DATA;
#1 = LOCAL_TIME ( 16, 50, 59.00000000000000000, #43 ) ;
#2 = APPROVAL_STATUS ( 'not_yet_approved' ) ;
#3 = CYLINDRICAL_SURFACE ( 'NONE', #29, 12.50000000000000000 ) ;
#4 = ORIENTED_EDGE ( 'NONE', *, *, #161, .F. ) ;
#5 = EDGE_CURVE ( 'NONE', #70, #40, #122, .T. ) ;
#6 = CC_DESIGN_PERSON_AND_ORGANIZATION_ASSIGNMENT ( #81, #48, ( #79 ) ) ;
#7 = DIRECTION ( 'NONE',  ( 0.0000000000000000000, 0.0000000000000000000, 1.000000000000000000 ) ) ;
#8 = DIRECTION ( 'NONE',  ( 1.000000000000000000, 0.0000000000000000000, 0.0000000000000000000 ) ) ;
#9 = AXIS2_PLACEMENT_3D ( 'NONE', #39, #129, #118 ) ;
#10 = APPLICATION_PROTOCOL_DEFINITION ( 'international standard', 'config_control_design', 1994, #173 ) ;
#11 = PERSON_AND_ORGANIZATION ( #51, #96 ) ;
#12 = ORIENTED_EDGE ( 'NONE', *, *, #76, .T. ) ;
#13 = DATE_AND_TIME ( #145, #45 ) ;
#14 = AXIS2_PLACEMENT_3D ( 'NONE', #167, #88, #8 ) ;
#15 = APPROVAL_PERSON_ORGANIZATION ( #109, #37, #86 ) ;
#16 = CC_DESIGN_PERSON_AND_ORGANIZATION_ASSIGNMENT ( #63, #90, ( #23 ) ) ;
#17 = APPROVAL_ROLE ( '' ) ;
#18 = APPROVAL_DATE_TIME ( #13, #37 ) ;
#19 = UNCERTAINTY_MEASURE_WITH_UNIT (LENGTH_MEASURE( 1.000000000000000082E-05 ), #75, 'distance_accuracy_value', 'NONE');
#20 = LOCAL_TIME ( 16, 50, 59.00000000000000000, #133 ) ;
#21 = DIRECTION ( 'NONE',  ( 0.0000000000000000000, 0.0000000000000000000, 1.000000000000000000 ) ) ;
#22 = DIRECTION ( 'NONE',  ( 1.000000000000000000, 0.0000000000000000000, -0.0000000000000000000 ) ) ;
#23 = PRODUCT ( 'Web Model 45076_13319', 'Web Model 45076_13319', '', ( #30 ) ) ;
#24 = CALENDAR_DATE ( 2020, 3, 11 ) ;
#25 = AXIS2_PLACEMENT_3D ( 'NONE', #141, #139, #89 ) ;
#26 = CARTESIAN_POINT ( 'NONE',  ( -12.50000000000000000, 1.530808498934191521E-15, 0.0000000000000000000 ) ) ;
#27 = VECTOR ( 'NONE', #7, 1000.000000000000000 ) ;
#28 = ADVANCED_FACE ( 'NONE', ( #44 ), #3, .T. ) ;
#29 = AXIS2_PLACEMENT_3D ( 'NONE', #53, #74, #99 ) ;
#30 = MECHANICAL_CONTEXT ( 'NONE', #101, 'mechanical' ) ;
#31 = PERSON_AND_ORGANIZATION ( #51, #96 ) ;
#32 = FACE_OUTER_BOUND ( 'NONE', #135, .T. ) ;
#33 = CC_DESIGN_APPROVAL ( #85, ( #131 ) ) ;
#34 =( GEOMETRIC_REPRESENTATION_CONTEXT ( 3 ) GLOBAL_UNCERTAINTY_ASSIGNED_CONTEXT ( ( #19 ) ) GLOBAL_UNIT_ASSIGNED_CONTEXT ( ( #75, #164, #59 ) ) REPRESENTATION_CONTEXT ( 'NONE', 'WORKASPACE' ) );
#35 = CALENDAR_DATE ( 2020, 3, 11 ) ;
#36 = APPROVAL_PERSON_ORGANIZATION ( #160, #85, #83 ) ;
#37 = APPROVAL ( #2, 'UNSPECIFIED' ) ;
#38 = CIRCLE ( 'NONE', #107, 12.50000000000000000 ) ;
#39 = CARTESIAN_POINT ( 'NONE',  ( 0.0000000000000000000, 0.0000000000000000000, 0.0000000000000000000 ) ) ;
#40 = VERTEX_POINT ( 'NONE', #117 ) ;
#41 = APPLICATION_PROTOCOL_DEFINITION ( 'international standard', 'config_control_design', 1994, #101 ) ;
#42 = APPROVAL ( #92, 'UNSPECIFIED' ) ;
#43 = COORDINATED_UNIVERSAL_TIME_OFFSET ( 5, 0, .BEHIND. ) ;
#44 = FACE_OUTER_BOUND ( 'NONE', #146, .T. ) ;
#45 = LOCAL_TIME ( 16, 50, 59.00000000000000000, #128 ) ;
#46 = FACE_OUTER_BOUND ( 'NONE', #158, .T. ) ;
#47 = ORIENTED_EDGE ( 'NONE', *, *, #95, .T. ) ;
#48 = PERSON_AND_ORGANIZATION_ROLE ( 'classification_officer' ) ;
#49 = CC_DESIGN_SECURITY_CLASSIFICATION ( #79, ( #171 ) ) ;
#50 = DATE_TIME_ROLE ( 'classification_date' ) ;
#51 = PERSON ( 'UNSPECIFIED', 'UNSPECIFIED', 'UNSPECIFIED', ('UNSPECIFIED'), ('UNSPECIFIED'), ('UNSPECIFIED') ) ;
#52 = CC_DESIGN_PERSON_AND_ORGANIZATION_ASSIGNMENT ( #162, #132, ( #171 ) ) ;
#53 = CARTESIAN_POINT ( 'NONE',  ( 0.0000000000000000000, 0.0000000000000000000, -4.000000000000000000 ) ) ;
#54 = CALENDAR_DATE ( 2020, 3, 11 ) ;
#55 = CARTESIAN_POINT ( 'NONE',  ( 0.0000000000000000000, 0.0000000000000000000, 0.0000000000000000000 ) ) ;
#56 = PLANE ( 'NONE',  #147 ) ;
#57 = ADVANCED_FACE ( 'NONE', ( #105 ), #56, .F. ) ;
#58 = CC_DESIGN_PERSON_AND_ORGANIZATION_ASSIGNMENT ( #11, #127, ( #171 ) ) ;
#59 =( NAMED_UNIT ( * ) SI_UNIT ( $, .STERADIAN. ) SOLID_ANGLE_UNIT ( ) );
#60 = VERTEX_POINT ( 'NONE', #138 ) ;
#61 = MANIFOLD_SOLID_BREP ( 'Extrude1', #148 ) ;
#62 = LOCAL_TIME ( 16, 50, 59.00000000000000000, #93 ) ;
#63 = PERSON_AND_ORGANIZATION ( #51, #96 ) ;
#64 = CYLINDRICAL_SURFACE ( 'NONE', #165, 12.50000000000000000 ) ;
#65 = DIRECTION ( 'NONE',  ( 1.000000000000000000, 0.0000000000000000000, 0.0000000000000000000 ) ) ;
#66 = CARTESIAN_POINT ( 'NONE',  ( 0.0000000000000000000, 0.0000000000000000000, -4.000000000000000000 ) ) ;
#67 = DIRECTION ( 'NONE',  ( 0.0000000000000000000, 0.0000000000000000000, 1.000000000000000000 ) ) ;
#68 = DIRECTION ( 'NONE',  ( 1.000000000000000000, 0.0000000000000000000, 0.0000000000000000000 ) ) ;
#69 = DATE_AND_TIME ( #54, #20 ) ;
#70 = VERTEX_POINT ( 'NONE', #26 ) ;
#71 = CC_DESIGN_DATE_AND_TIME_ASSIGNMENT ( #172, #142, ( #131 ) ) ;
#72 = APPROVAL_DATE_TIME ( #106, #42 ) ;
#73 = ORIENTED_EDGE ( 'NONE', *, *, #150, .F. ) ;
#74 = DIRECTION ( 'NONE',  ( 0.0000000000000000000, 0.0000000000000000000, 1.000000000000000000 ) ) ;
#75 =( LENGTH_UNIT ( ) NAMED_UNIT ( * ) SI_UNIT ( .MILLI., .METRE. ) );
#76 = EDGE_CURVE ( 'NONE', #125, #70, #174, .T. ) ;
#77 = DIRECTION ( 'NONE',  ( 1.000000000000000000, 0.0000000000000000000, 0.0000000000000000000 ) ) ;
#78 = CARTESIAN_POINT ( 'NONE',  ( -12.50000000000000000, 1.530808498934191521E-15, -4.000000000000000000 ) ) ;
#79 = SECURITY_CLASSIFICATION ( '', '', #111 ) ;
#80 = DIRECTION ( 'NONE',  ( 0.0000000000000000000, 0.0000000000000000000, 1.000000000000000000 ) ) ;
#81 = PERSON_AND_ORGANIZATION ( #51, #96 ) ;
#82 = ORIENTED_EDGE ( 'NONE', *, *, #95, .F. ) ;
#83 = APPROVAL_ROLE ( '' ) ;
#84 = CIRCLE ( 'NONE', #120, 12.50000000000000000 ) ;
#85 = APPROVAL ( #102, 'UNSPECIFIED' ) ;
#86 = APPROVAL_ROLE ( '' ) ;
#87 = ORIENTED_EDGE ( 'NONE', *, *, #76, .F. ) ;
#88 = DIRECTION ( 'NONE',  ( 0.0000000000000000000, 0.0000000000000000000, 1.000000000000000000 ) ) ;
#89 = DIRECTION ( 'NONE',  ( 1.000000000000000000, 0.0000000000000000000, -0.0000000000000000000 ) ) ;
#90 = PERSON_AND_ORGANIZATION_ROLE ( 'design_owner' ) ;
#91 = ORIENTED_EDGE ( 'NONE', *, *, #5, .T. ) ;
#92 = APPROVAL_STATUS ( 'not_yet_approved' ) ;
#93 = COORDINATED_UNIVERSAL_TIME_OFFSET ( 5, 0, .BEHIND. ) ;
#94 = ORIENTED_EDGE ( 'NONE', *, *, #163, .T. ) ;
#95 = EDGE_CURVE ( 'NONE', #60, #125, #38, .T. ) ;
#96 = ORGANIZATION ( 'UNSPECIFIED', 'UNSPECIFIED', '' ) ;
#97 = APPROVAL_DATE_TIME ( #69, #85 ) ;
#98 = DIRECTION ( 'NONE',  ( 0.0000000000000000000, 0.0000000000000000000, 1.000000000000000000 ) ) ;
#99 = DIRECTION ( 'NONE',  ( 1.000000000000000000, 0.0000000000000000000, 0.0000000000000000000 ) ) ;
#100 = CC_DESIGN_APPROVAL ( #42, ( #171 ) ) ;
#101 = APPLICATION_CONTEXT ( 'configuration controlled 3d designs of mechanical parts and assemblies' ) ;
#102 = APPROVAL_STATUS ( 'not_yet_approved' ) ;
#103 = ADVANCED_FACE ( 'NONE', ( #32 ), #154, .T. ) ;
#104 = CALENDAR_DATE ( 2020, 3, 11 ) ;
#105 = FACE_OUTER_BOUND ( 'NONE', #134, .T. ) ;
#106 = DATE_AND_TIME ( #24, #62 ) ;
#107 = AXIS2_PLACEMENT_3D ( 'NONE', #152, #153, #77 ) ;
#108 = APPROVAL_PERSON_ORGANIZATION ( #143, #42, #17 ) ;
#109 = PERSON_AND_ORGANIZATION ( #51, #96 ) ;
#110 = ORIENTED_EDGE ( 'NONE', *, *, #161, .T. ) ;
#111 = SECURITY_CLASSIFICATION_LEVEL ( 'unclassified' ) ;
#112 = SHAPE_DEFINITION_REPRESENTATION ( #123, #159 ) ;
#113 = CC_DESIGN_DATE_AND_TIME_ASSIGNMENT ( #168, #50, ( #79 ) ) ;
#114 = DIRECTION ( 'NONE',  ( 1.000000000000000000, 0.0000000000000000000, 0.0000000000000000000 ) ) ;
#115 = CARTESIAN_POINT ( 'NONE',  ( -12.50000000000000000, 1.530808498934191521E-15, -4.000000000000000000 ) ) ;
#116 = CARTESIAN_POINT ( 'NONE',  ( 0.0000000000000000000, 0.0000000000000000000, -4.000000000000000000 ) ) ;
#117 = CARTESIAN_POINT ( 'NONE',  ( 12.50000000000000000, 0.0000000000000000000, 0.0000000000000000000 ) ) ;
#118 = DIRECTION ( 'NONE',  ( 1.000000000000000000, 0.0000000000000000000, 0.0000000000000000000 ) ) ;
#119 = PERSON_AND_ORGANIZATION_ROLE ( 'creator' ) ;
#120 = AXIS2_PLACEMENT_3D ( 'NONE', #116, #21, #114 ) ;
#121 = LOCAL_TIME ( 16, 50, 59.00000000000000000, #156 ) ;
#122 = CIRCLE ( 'NONE', #14, 12.50000000000000000 ) ;
#123 = PRODUCT_DEFINITION_SHAPE ( 'NONE', 'NONE',  #131 ) ;
#124 = CIRCLE ( 'NONE', #175, 12.50000000000000000 ) ;
#125 = VERTEX_POINT ( 'NONE', #115 ) ;
#126 = CC_DESIGN_APPROVAL ( #37, ( #79 ) ) ;
#127 = PERSON_AND_ORGANIZATION_ROLE ( 'design_supplier' ) ;
#128 = COORDINATED_UNIVERSAL_TIME_OFFSET ( 5, 0, .BEHIND. ) ;
#129 = DIRECTION ( 'NONE',  ( 0.0000000000000000000, 0.0000000000000000000, 1.000000000000000000 ) ) ;
#130 = LINE ( 'NONE', #166, #27 ) ;
#131 = PRODUCT_DEFINITION ( 'UNKNOWN', '', #171, #151 ) ;
#132 = PERSON_AND_ORGANIZATION_ROLE ( 'creator' ) ;
#133 = COORDINATED_UNIVERSAL_TIME_OFFSET ( 5, 0, .BEHIND. ) ;
#134 = EDGE_LOOP ( 'NONE', ( #82, #4 ) ) ;
#135 = EDGE_LOOP ( 'NONE', ( #94, #91 ) ) ;
#136 = CC_DESIGN_PERSON_AND_ORGANIZATION_ASSIGNMENT ( #31, #119, ( #131 ) ) ;
#137 = DIRECTION ( 'NONE',  ( 0.0000000000000000000, 0.0000000000000000000, 1.000000000000000000 ) ) ;
#138 = CARTESIAN_POINT ( 'NONE',  ( 12.50000000000000000, 0.0000000000000000000, -4.000000000000000000 ) ) ;
#139 = DIRECTION ( 'NONE',  ( 0.0000000000000000000, 0.0000000000000000000, 1.000000000000000000 ) ) ;
#140 = ADVANCED_FACE ( 'NONE', ( #46 ), #64, .T. ) ;
#141 = CARTESIAN_POINT ( 'NONE',  ( 0.0000000000000000000, 0.0000000000000000000, 0.0000000000000000000 ) ) ;
#142 = DATE_TIME_ROLE ( 'creation_date' ) ;
#143 = PERSON_AND_ORGANIZATION ( #51, #96 ) ;
#144 = PRODUCT_RELATED_PRODUCT_CATEGORY ( 'detail', '', ( #23 ) ) ;
#145 = CALENDAR_DATE ( 2020, 3, 11 ) ;
#146 = EDGE_LOOP ( 'NONE', ( #47, #12, #157, #73 ) ) ;
#147 = AXIS2_PLACEMENT_3D ( 'NONE', #66, #67, #22 ) ;
#148 = CLOSED_SHELL ( 'NONE', ( #28, #140, #57, #103 ) ) ;
#149 = ORIENTED_EDGE ( 'NONE', *, *, #150, .T. ) ;
#150 = EDGE_CURVE ( 'NONE', #60, #40, #130, .T. ) ;
#151 = DESIGN_CONTEXT ( 'detailed design', #173, 'design' ) ;
#152 = CARTESIAN_POINT ( 'NONE',  ( 0.0000000000000000000, 0.0000000000000000000, -4.000000000000000000 ) ) ;
#153 = DIRECTION ( 'NONE',  ( 0.0000000000000000000, 0.0000000000000000000, 1.000000000000000000 ) ) ;
#154 = PLANE ( 'NONE',  #25 ) ;
#155 = VECTOR ( 'NONE', #98, 1000.000000000000000 ) ;
#156 = COORDINATED_UNIVERSAL_TIME_OFFSET ( 5, 0, .BEHIND. ) ;
#157 = ORIENTED_EDGE ( 'NONE', *, *, #163, .F. ) ;
#158 = EDGE_LOOP ( 'NONE', ( #87, #110, #149, #170 ) ) ;
#159 = ADVANCED_BREP_SHAPE_REPRESENTATION ( 'Web Model 45076_13319', ( #61, #9 ), #34 ) ;
#160 = PERSON_AND_ORGANIZATION ( #51, #96 ) ;
#161 = EDGE_CURVE ( 'NONE', #125, #60, #84, .T. ) ;
#162 = PERSON_AND_ORGANIZATION ( #51, #96 ) ;
#163 = EDGE_CURVE ( 'NONE', #40, #70, #124, .T. ) ;
#164 =( NAMED_UNIT ( * ) PLANE_ANGLE_UNIT ( ) SI_UNIT ( $, .RADIAN. ) );
#165 = AXIS2_PLACEMENT_3D ( 'NONE', #169, #80, #68 ) ;
#166 = CARTESIAN_POINT ( 'NONE',  ( 12.50000000000000000, 0.0000000000000000000, -4.000000000000000000 ) ) ;
#167 = CARTESIAN_POINT ( 'NONE',  ( 0.0000000000000000000, 0.0000000000000000000, 0.0000000000000000000 ) ) ;
#168 = DATE_AND_TIME ( #35, #121 ) ;
#169 = CARTESIAN_POINT ( 'NONE',  ( 0.0000000000000000000, 0.0000000000000000000, -4.000000000000000000 ) ) ;
#170 = ORIENTED_EDGE ( 'NONE', *, *, #5, .F. ) ;
#171 = PRODUCT_DEFINITION_FORMATION_WITH_SPECIFIED_SOURCE ( 'ANY', '', #23, .NOT_KNOWN. ) ;
#172 = DATE_AND_TIME ( #104, #1 ) ;
#173 = APPLICATION_CONTEXT ( 'configuration controlled 3d designs of mechanical parts and assemblies' ) ;
#174 = LINE ( 'NONE', #78, #155 ) ;
#175 = AXIS2_PLACEMENT_3D ( 'NONE', #55, #137, #65 ) ;
ENDSEC;
END-ISO-10303-21;
