ISO-10303-21;
HEADER;
FILE_DESCRIPTION (( 'STEP AP203' ),
    '1' );
FILE_NAME ('step_35953.step',
    '2017-05-22T20:26:40',
    ( '' ),
    ( '' ),
    'SwSTEP 2.0',
    'SolidWorks 2016',
    '' );
FILE_SCHEMA (( 'CONFIG_CONTROL_DESIGN' ));
ENDSEC;

DATA;
#1 = CC_DESIGN_SECURITY_CLASSIFICATION ( #17, ( #44 ) ) ;
#2 = MANIFOLD_SOLID_BREP ( 'Boss-Extrude1', #62 ) ;
#3 = APPROVAL_DATE_TIME ( #5, #9 ) ;
#4 = CC_DESIGN_APPROVAL ( #9, ( #17 ) ) ;
#5 = DATE_AND_TIME ( #7, #8 ) ;
#6 = PLANE ( 'NONE',  #123 ) ;
#7 = CALENDAR_DATE ( 2017, 22, 5 ) ;
#8 = LOCAL_TIME ( 13, 26, 40.00000000000000000, #12 ) ;
#9 = APPROVAL ( #80, 'UNSPECIFIED' ) ;
#10 = CC_DESIGN_DATE_AND_TIME_ASSIGNMENT ( #16, #82, ( #17 ) ) ;
#11 = CARTESIAN_POINT ( 'NONE',  ( 12.49999999999999600, -19.00000000000000400, 1.000000000000000000 ) ) ;
#12 = COORDINATED_UNIVERSAL_TIME_OFFSET ( 7, 0, .BEHIND. ) ;
#13 = APPROVAL_PERSON_ORGANIZATION ( #14, #9, #30 ) ;
#14 = PERSON_AND_ORGANIZATION ( #192, #124 ) ;
#15 = CC_DESIGN_PERSON_AND_ORGANIZATION_ASSIGNMENT ( #25, #65, ( #17 ) ) ;
#16 = DATE_AND_TIME ( #21, #22 ) ;
#17 = SECURITY_CLASSIFICATION ( '', '', #85 ) ;
#18 = CARTESIAN_POINT ( 'NONE',  ( -12.50000000000000700, 18.99999999999999600, 0.0000000000000000000 ) ) ;
#19 = DIRECTION ( 'NONE',  ( -1.000000000000000000, -0.0000000000000000000, -0.0000000000000000000 ) ) ;
#20 = CC_DESIGN_PERSON_AND_ORGANIZATION_ASSIGNMENT ( #26, #185, ( #44 ) ) ;
#21 = CALENDAR_DATE ( 2017, 22, 5 ) ;
#22 = LOCAL_TIME ( 13, 26, 40.00000000000000000, #23 ) ;
#23 = COORDINATED_UNIVERSAL_TIME_OFFSET ( 7, 0, .BEHIND. ) ;
#24 = CC_DESIGN_PERSON_AND_ORGANIZATION_ASSIGNMENT ( #27, #188, ( #44 ) ) ;
#25 = PERSON_AND_ORGANIZATION ( #192, #124 ) ;
#26 = PERSON_AND_ORGANIZATION ( #192, #124 ) ;
#27 = PERSON_AND_ORGANIZATION ( #192, #124 ) ;
#28 = APPROVAL_DATE_TIME ( #29, #40 ) ;
#29 = DATE_AND_TIME ( #32, #35 ) ;
#30 = APPROVAL_ROLE ( '' ) ;
#31 = CC_DESIGN_APPROVAL ( #40, ( #44 ) ) ;
#32 = CALENDAR_DATE ( 2017, 22, 5 ) ;
#33 = CARTESIAN_POINT ( 'NONE',  ( -12.50000000000000000, -19.00000000000000400, 1.000000000000000000 ) ) ;
#34 = CARTESIAN_POINT ( 'NONE',  ( -12.50000000000000700, 18.99999999999999600, 1.000000000000000000 ) ) ;
#35 = LOCAL_TIME ( 13, 26, 40.00000000000000000, #37 ) ;
#36 = ORIENTED_EDGE ( 'NONE', *, *, #104, .T. ) ;
#37 = COORDINATED_UNIVERSAL_TIME_OFFSET ( 7, 0, .BEHIND. ) ;
#38 = ADVANCED_FACE ( 'NONE', ( #205 ), #81, .F. ) ;
#39 = APPROVAL_PERSON_ORGANIZATION ( #41, #40, #191 ) ;
#40 = APPROVAL ( #194, 'UNSPECIFIED' ) ;
#41 = PERSON_AND_ORGANIZATION ( #192, #124 ) ;
#42 = CARTESIAN_POINT ( 'NONE',  ( -12.50000000000000000, -19.00000000000000400, 1.000000000000000000 ) ) ;
#43 = DIRECTION ( 'NONE',  ( 1.826024711554533900E-016, -1.000000000000000000, 0.0000000000000000000 ) ) ;
#44 = PRODUCT_DEFINITION_FORMATION_WITH_SPECIFIED_SOURCE ( 'ANY', '', #178, .NOT_KNOWN. ) ;
#45 = CALENDAR_DATE ( 2017, 22, 5 ) ;
#46 = CARTESIAN_POINT ( 'NONE',  ( 12.49999999999999300, 18.99999999999999600, 1.000000000000000000 ) ) ;
#47 = DATE_AND_TIME ( #45, #48 ) ;
#48 = LOCAL_TIME ( 13, 26, 40.00000000000000000, #212 ) ;
#49 = PERSON_AND_ORGANIZATION ( #192, #124 ) ;
#50 = CC_DESIGN_DATE_AND_TIME_ASSIGNMENT ( #47, #215, ( #64 ) ) ;
#51 = DIRECTION ( 'NONE',  ( -1.000000000000000000, -0.0000000000000000000, -0.0000000000000000000 ) ) ;
#52 = CC_DESIGN_PERSON_AND_ORGANIZATION_ASSIGNMENT ( #49, #130, ( #64 ) ) ;
#53 = VERTEX_POINT ( 'NONE', #75 ) ;
#54 = CALENDAR_DATE ( 2017, 22, 5 ) ;
#55 = ORIENTED_EDGE ( 'NONE', *, *, #232, .F. ) ;
#56 = CC_DESIGN_APPROVAL ( #58, ( #64 ) ) ;
#57 = ORIENTED_EDGE ( 'NONE', *, *, #216, .F. ) ;
#58 = APPROVAL ( #60, 'UNSPECIFIED' ) ;
#59 =( NAMED_UNIT ( * ) PLANE_ANGLE_UNIT ( ) SI_UNIT ( $, .RADIAN. ) );
#60 = APPROVAL_STATUS ( 'not_yet_approved' ) ;
#61 = CARTESIAN_POINT ( 'NONE',  ( -12.50000000000000700, 18.99999999999999600, 1.000000000000000000 ) ) ;
#62 = CLOSED_SHELL ( 'NONE', ( #38, #90, #155, #121, #98, #78 ) ) ;
#63 = CARTESIAN_POINT ( 'NONE',  ( -12.50000000000000700, 18.99999999999999600, 1.000000000000000000 ) ) ;
#64 = PRODUCT_DEFINITION ( 'UNKNOWN', '', #44, #94 ) ;
#65 = PERSON_AND_ORGANIZATION_ROLE ( 'classification_officer' ) ;
#66 = CARTESIAN_POINT ( 'NONE',  ( -12.50000000000000700, 18.99999999999999600, 0.0000000000000000000 ) ) ;
#67 = CARTESIAN_POINT ( 'NONE',  ( -12.50000000000000700, 18.99999999999999600, 1.000000000000000000 ) ) ;
#68 = CC_DESIGN_PERSON_AND_ORGANIZATION_ASSIGNMENT ( #169, #235, ( #178 ) ) ;
#69 = ORIENTED_EDGE ( 'NONE', *, *, #210, .T. ) ;
#70 = SHAPE_DEFINITION_REPRESENTATION ( #187, #225 ) ;
#71 =( NAMED_UNIT ( * ) SI_UNIT ( $, .STERADIAN. ) SOLID_ANGLE_UNIT ( ) );
#72 = EDGE_CURVE ( 'NONE', #150, #163, #197, .T. ) ;
#73 = APPLICATION_CONTEXT ( 'configuration controlled 3d designs of mechanical parts and assemblies' ) ;
#74 = CARTESIAN_POINT ( 'NONE',  ( 12.49999999999999300, 18.99999999999999600, 0.0000000000000000000 ) ) ;
#75 = CARTESIAN_POINT ( 'NONE',  ( 12.49999999999999300, 18.99999999999999600, 1.000000000000000000 ) ) ;
#76 = CARTESIAN_POINT ( 'NONE',  ( -12.50000000000000000, -19.00000000000000400, 0.0000000000000000000 ) ) ;
#77 = DATE_AND_TIME ( #54, #166 ) ;
#78 = ADVANCED_FACE ( 'NONE', ( #91 ), #103, .F. ) ;
#79 = AXIS2_PLACEMENT_3D ( 'NONE', #149, #176, #134 ) ;
#80 = APPROVAL_STATUS ( 'not_yet_approved' ) ;
#81 = PLANE ( 'NONE',  #135 ) ;
#82 = DATE_TIME_ROLE ( 'classification_date' ) ;
#83 = ORIENTED_EDGE ( 'NONE', *, *, #114, .T. ) ;
#84 = PRODUCT_RELATED_PRODUCT_CATEGORY ( 'detail', '', ( #178 ) ) ;
#85 = SECURITY_CLASSIFICATION_LEVEL ( 'unclassified' ) ;
#86 = CARTESIAN_POINT ( 'NONE',  ( 0.0000000000000000000, 0.0000000000000000000, 0.0000000000000000000 ) ) ;
#87 = LINE ( 'NONE', #66, #161 ) ;
#88 = PLANE ( 'NONE',  #174 ) ;
#89 = PLANE ( 'NONE',  #101 ) ;
#90 = ADVANCED_FACE ( 'NONE', ( #234 ), #6, .F. ) ;
#91 = FACE_OUTER_BOUND ( 'NONE', #209, .T. ) ;
#92 = APPLICATION_PROTOCOL_DEFINITION ( 'international standard', 'config_control_design', 1994, #73 ) ;
#93 = DIRECTION ( 'NONE',  ( -9.130123557772669600E-017, 1.000000000000000000, -0.0000000000000000000 ) ) ;
#94 = DESIGN_CONTEXT ( 'detailed design', #108, 'design' ) ;
#95 = FACE_OUTER_BOUND ( 'NONE', #230, .T. ) ;
#96 = VECTOR ( 'NONE', #119, 1000.000000000000000 ) ;
#97 = EDGE_LOOP ( 'NONE', ( #200, #55, #145, #203 ) ) ;
#98 = ADVANCED_FACE ( 'NONE', ( #95 ), #88, .T. ) ;
#99 = ORIENTED_EDGE ( 'NONE', *, *, #72, .T. ) ;
#100 = COORDINATED_UNIVERSAL_TIME_OFFSET ( 7, 0, .BEHIND. ) ;
#101 = AXIS2_PLACEMENT_3D ( 'NONE', #46, #156, #137 ) ;
#102 = CARTESIAN_POINT ( 'NONE',  ( 12.49999999999999300, 18.99999999999999600, 1.000000000000000000 ) ) ;
#103 = PLANE ( 'NONE',  #220 ) ;
#104 = EDGE_CURVE ( 'NONE', #226, #150, #105, .T. ) ;
#105 = LINE ( 'NONE', #138, #140 ) ;
#106 = LINE ( 'NONE', #11, #116 ) ;
#107 = ORIENTED_EDGE ( 'NONE', *, *, #104, .F. ) ;
#108 = APPLICATION_CONTEXT ( 'configuration controlled 3d designs of mechanical parts and assemblies' ) ;
#109 = EDGE_CURVE ( 'NONE', #207, #126, #162, .T. ) ;
#110 = DIRECTION ( 'NONE',  ( 0.0000000000000000000, -0.0000000000000000000, 1.000000000000000000 ) ) ;
#111 = VECTOR ( 'NONE', #208, 1000.000000000000000 ) ;
#112 = LINE ( 'NONE', #172, #148 ) ;
#113 = FACE_OUTER_BOUND ( 'NONE', #193, .T. ) ;
#114 = EDGE_CURVE ( 'NONE', #147, #53, #157, .T. ) ;
#115 = LINE ( 'NONE', #33, #127 ) ;
#116 = VECTOR ( 'NONE', #236, 1000.000000000000000 ) ;
#117 = ORIENTED_EDGE ( 'NONE', *, *, #237, .F. ) ;
#118 =( GEOMETRIC_REPRESENTATION_CONTEXT ( 3 ) GLOBAL_UNCERTAINTY_ASSIGNED_CONTEXT ( ( #168 ) ) GLOBAL_UNIT_ASSIGNED_CONTEXT ( ( #128, #59, #71 ) ) REPRESENTATION_CONTEXT ( 'NONE', 'WORKASPACE' ) );
#119 = DIRECTION ( 'NONE',  ( 1.000000000000000000, 0.0000000000000000000, 0.0000000000000000000 ) ) ;
#120 = VECTOR ( 'NONE', #136, 1000.000000000000000 ) ;
#121 = ADVANCED_FACE ( 'NONE', ( #142 ), #173, .F. ) ;
#122 = CARTESIAN_POINT ( 'NONE',  ( 12.49999999999999600, -19.00000000000000400, 1.000000000000000000 ) ) ;
#123 = AXIS2_PLACEMENT_3D ( 'NONE', #165, #223, #110 ) ;
#124 = ORGANIZATION ( 'UNSPECIFIED', 'UNSPECIFIED', '' ) ;
#125 = EDGE_CURVE ( 'NONE', #53, #207, #112, .T. ) ;
#126 = VERTEX_POINT ( 'NONE', #154 ) ;
#127 = VECTOR ( 'NONE', #219, 1000.000000000000000 ) ;
#128 =( LENGTH_UNIT ( ) NAMED_UNIT ( * ) SI_UNIT ( .MILLI., .METRE. ) );
#129 = LINE ( 'NONE', #190, #111 ) ;
#130 = PERSON_AND_ORGANIZATION_ROLE ( 'creator' ) ;
#131 = ORIENTED_EDGE ( 'NONE', *, *, #186, .F. ) ;
#132 = APPLICATION_PROTOCOL_DEFINITION ( 'international standard', 'config_control_design', 1994, #108 ) ;
#133 = DIRECTION ( 'NONE',  ( 0.0000000000000000000, -1.000000000000000000, 0.0000000000000000000 ) ) ;
#134 = DIRECTION ( 'NONE',  ( 1.000000000000000000, 0.0000000000000000000, 0.0000000000000000000 ) ) ;
#135 = AXIS2_PLACEMENT_3D ( 'NONE', #177, #175, #198 ) ;
#136 = DIRECTION ( 'NONE',  ( -0.0000000000000000000, -0.0000000000000000000, -1.000000000000000000 ) ) ;
#137 = DIRECTION ( 'NONE',  ( 9.130123557772669600E-017, -1.000000000000000000, 0.0000000000000000000 ) ) ;
#138 = CARTESIAN_POINT ( 'NONE',  ( -12.50000000000000000, -19.00000000000000400, 0.0000000000000000000 ) ) ;
#139 = LINE ( 'NONE', #18, #141 ) ;
#140 = VECTOR ( 'NONE', #211, 1000.000000000000000 ) ;
#141 = VECTOR ( 'NONE', #182, 1000.000000000000000 ) ;
#142 = FACE_OUTER_BOUND ( 'NONE', #97, .T. ) ;
#143 = VECTOR ( 'NONE', #189, 1000.000000000000000 ) ;
#144 = EDGE_CURVE ( 'NONE', #163, #202, #87, .T. ) ;
#145 = ORIENTED_EDGE ( 'NONE', *, *, #125, .F. ) ;
#146 = DIRECTION ( 'NONE',  ( 0.0000000000000000000, -0.0000000000000000000, -1.000000000000000000 ) ) ;
#147 = VERTEX_POINT ( 'NONE', #122 ) ;
#148 = VECTOR ( 'NONE', #51, 1000.000000000000000 ) ;
#149 = CARTESIAN_POINT ( 'NONE',  ( 0.0000000000000000000, 0.0000000000000000000, 0.0000000000000000000 ) ) ;
#150 = VERTEX_POINT ( 'NONE', #184 ) ;
#151 = ORIENTED_EDGE ( 'NONE', *, *, #72, .F. ) ;
#152 = DIRECTION ( 'NONE',  ( 1.000000000000000000, 0.0000000000000000000, 0.0000000000000000000 ) ) ;
#153 = ORIENTED_EDGE ( 'NONE', *, *, #109, .F. ) ;
#154 = CARTESIAN_POINT ( 'NONE',  ( -12.50000000000000000, -19.00000000000000400, 1.000000000000000000 ) ) ;
#155 = ADVANCED_FACE ( 'NONE', ( #113 ), #89, .F. ) ;
#156 = DIRECTION ( 'NONE',  ( -1.000000000000000000, -9.130123557772669600E-017, 0.0000000000000000000 ) ) ;
#157 = LINE ( 'NONE', #102, #159 ) ;
#158 = VECTOR ( 'NONE', #43, 1000.000000000000000 ) ;
#159 = VECTOR ( 'NONE', #93, 1000.000000000000000 ) ;
#160 = ORIENTED_EDGE ( 'NONE', *, *, #144, .F. ) ;
#161 = VECTOR ( 'NONE', #19, 1000.000000000000000 ) ;
#162 = LINE ( 'NONE', #67, #158 ) ;
#163 = VERTEX_POINT ( 'NONE', #221 ) ;
#164 = EDGE_CURVE ( 'NONE', #126, #147, #206, .T. ) ;
#165 = CARTESIAN_POINT ( 'NONE',  ( -12.50000000000000000, -19.00000000000000400, 1.000000000000000000 ) ) ;
#166 = LOCAL_TIME ( 13, 26, 40.00000000000000000, #100 ) ;
#167 = EDGE_LOOP ( 'NONE', ( #201, #57, #153, #196 ) ) ;
#168 = UNCERTAINTY_MEASURE_WITH_UNIT (LENGTH_MEASURE( 1.000000000000000100E-005 ), #128, 'distance_accuracy_value', 'NONE');
#169 = PERSON_AND_ORGANIZATION ( #192, #124 ) ;
#170 = APPROVAL_ROLE ( '' ) ;
#171 = PERSON_AND_ORGANIZATION ( #192, #124 ) ;
#172 = CARTESIAN_POINT ( 'NONE',  ( -12.50000000000000700, 18.99999999999999600, 1.000000000000000000 ) ) ;
#173 = PLANE ( 'NONE',  #179 ) ;
#174 = AXIS2_PLACEMENT_3D ( 'NONE', #228, #204, #152 ) ;
#175 = DIRECTION ( 'NONE',  ( 1.000000000000000000, 1.826024711554533900E-016, -0.0000000000000000000 ) ) ;
#176 = DIRECTION ( 'NONE',  ( 0.0000000000000000000, 0.0000000000000000000, 1.000000000000000000 ) ) ;
#177 = CARTESIAN_POINT ( 'NONE',  ( -12.50000000000000700, 18.99999999999999600, 1.000000000000000000 ) ) ;
#178 = PRODUCT ( 'step_35953', 'step_35953', '', ( #227 ) ) ;
#179 = AXIS2_PLACEMENT_3D ( 'NONE', #34, #133, #146 ) ;
#180 = APPROVAL_PERSON_ORGANIZATION ( #171, #58, #170 ) ;
#181 = CARTESIAN_POINT ( 'NONE',  ( -12.50000000000000700, 18.99999999999999600, 0.0000000000000000000 ) ) ;
#182 = DIRECTION ( 'NONE',  ( 1.826024711554533900E-016, -1.000000000000000000, 0.0000000000000000000 ) ) ;
#183 = DIRECTION ( 'NONE',  ( 1.000000000000000000, 0.0000000000000000000, 0.0000000000000000000 ) ) ;
#184 = CARTESIAN_POINT ( 'NONE',  ( 12.49999999999999600, -19.00000000000000400, 0.0000000000000000000 ) ) ;
#185 = PERSON_AND_ORGANIZATION_ROLE ( 'design_supplier' ) ;
#186 = EDGE_CURVE ( 'NONE', #202, #226, #139, .T. ) ;
#187 = PRODUCT_DEFINITION_SHAPE ( 'NONE', 'NONE',  #64 ) ;
#188 = PERSON_AND_ORGANIZATION_ROLE ( 'creator' ) ;
#189 = DIRECTION ( 'NONE',  ( -9.130123557772669600E-017, 1.000000000000000000, -0.0000000000000000000 ) ) ;
#190 = CARTESIAN_POINT ( 'NONE',  ( 12.49999999999999300, 18.99999999999999600, 1.000000000000000000 ) ) ;
#191 = APPROVAL_ROLE ( '' ) ;
#192 = PERSON ( 'UNSPECIFIED', 'UNSPECIFIED', 'UNSPECIFIED', ('UNSPECIFIED'), ('UNSPECIFIED'), ('UNSPECIFIED') ) ;
#193 = EDGE_LOOP ( 'NONE', ( #99, #117, #214, #69 ) ) ;
#194 = APPROVAL_STATUS ( 'not_yet_approved' ) ;
#195 = APPROVAL_DATE_TIME ( #77, #58 ) ;
#196 = ORIENTED_EDGE ( 'NONE', *, *, #232, .T. ) ;
#197 = LINE ( 'NONE', #74, #143 ) ;
#198 = DIRECTION ( 'NONE',  ( -1.826024711554533900E-016, 1.000000000000000000, 0.0000000000000000000 ) ) ;
#199 = ORIENTED_EDGE ( 'NONE', *, *, #216, .T. ) ;
#200 = ORIENTED_EDGE ( 'NONE', *, *, #144, .T. ) ;
#201 = ORIENTED_EDGE ( 'NONE', *, *, #186, .T. ) ;
#202 = VERTEX_POINT ( 'NONE', #181 ) ;
#203 = ORIENTED_EDGE ( 'NONE', *, *, #237, .T. ) ;
#204 = DIRECTION ( 'NONE',  ( -0.0000000000000000000, 0.0000000000000000000, 1.000000000000000000 ) ) ;
#205 = FACE_OUTER_BOUND ( 'NONE', #167, .T. ) ;
#206 = LINE ( 'NONE', #42, #96 ) ;
#207 = VERTEX_POINT ( 'NONE', #63 ) ;
#208 = DIRECTION ( 'NONE',  ( -0.0000000000000000000, -0.0000000000000000000, -1.000000000000000000 ) ) ;
#209 = EDGE_LOOP ( 'NONE', ( #131, #160, #151, #107 ) ) ;
#210 = EDGE_CURVE ( 'NONE', #147, #150, #106, .T. ) ;
#211 = DIRECTION ( 'NONE',  ( 1.000000000000000000, 0.0000000000000000000, 0.0000000000000000000 ) ) ;
#212 = COORDINATED_UNIVERSAL_TIME_OFFSET ( 7, 0, .BEHIND. ) ;
#213 = ORIENTED_EDGE ( 'NONE', *, *, #210, .F. ) ;
#214 = ORIENTED_EDGE ( 'NONE', *, *, #114, .F. ) ;
#215 = DATE_TIME_ROLE ( 'creation_date' ) ;
#216 = EDGE_CURVE ( 'NONE', #126, #226, #115, .T. ) ;
#217 = EDGE_LOOP ( 'NONE', ( #36, #213, #233, #199 ) ) ;
#218 = ORIENTED_EDGE ( 'NONE', *, *, #125, .T. ) ;
#219 = DIRECTION ( 'NONE',  ( -0.0000000000000000000, -0.0000000000000000000, -1.000000000000000000 ) ) ;
#220 = AXIS2_PLACEMENT_3D ( 'NONE', #86, #224, #183 ) ;
#221 = CARTESIAN_POINT ( 'NONE',  ( 12.49999999999999300, 18.99999999999999600, 0.0000000000000000000 ) ) ;
#222 = ORIENTED_EDGE ( 'NONE', *, *, #164, .T. ) ;
#223 = DIRECTION ( 'NONE',  ( 0.0000000000000000000, 1.000000000000000000, 0.0000000000000000000 ) ) ;
#224 = DIRECTION ( 'NONE',  ( -0.0000000000000000000, 0.0000000000000000000, 1.000000000000000000 ) ) ;
#225 = ADVANCED_BREP_SHAPE_REPRESENTATION ( 'step_35953', ( #2, #79 ), #118 ) ;
#226 = VERTEX_POINT ( 'NONE', #76 ) ;
#227 = MECHANICAL_CONTEXT ( 'NONE', #73, 'mechanical' ) ;
#228 = CARTESIAN_POINT ( 'NONE',  ( 0.0000000000000000000, 0.0000000000000000000, 1.000000000000000000 ) ) ;
#229 = ORIENTED_EDGE ( 'NONE', *, *, #109, .T. ) ;
#230 = EDGE_LOOP ( 'NONE', ( #229, #222, #83, #218 ) ) ;
#231 = LINE ( 'NONE', #61, #120 ) ;
#232 = EDGE_CURVE ( 'NONE', #207, #202, #231, .T. ) ;
#233 = ORIENTED_EDGE ( 'NONE', *, *, #164, .F. ) ;
#234 = FACE_OUTER_BOUND ( 'NONE', #217, .T. ) ;
#235 = PERSON_AND_ORGANIZATION_ROLE ( 'design_owner' ) ;
#236 = DIRECTION ( 'NONE',  ( -0.0000000000000000000, -0.0000000000000000000, -1.000000000000000000 ) ) ;
#237 = EDGE_CURVE ( 'NONE', #53, #163, #129, .T. ) ;
ENDSEC;
END-ISO-10303-21;
