ISO-10303-21;
HEADER;
FILE_DESCRIPTION (( 'STEP AP203' ),
    '1' );
FILE_NAME ('Web Model 48513_48521.step',
    '2021-04-23T18:00:31',
    ( '' ),
    ( '' ),
    'SwSTEP 2.0',
    'SolidWorks 2018',
    '' );
FILE_SCHEMA (( 'CONFIG_CONTROL_DESIGN' ));
ENDSEC;

DATA;
#1 = CALENDAR_DATE ( 2021, 23, 4 ) ;
#2 = ORIENTED_EDGE ( 'NONE', *, *, #243, .F. ) ;
#3 = CARTESIAN_POINT ( 'NONE',  ( 22.85000000000000142, 0.000000000000000000, 0.000000000000000000 ) ) ;
#4 = AXIS2_PLACEMENT_3D ( 'NONE', #330, #237, #67 ) ;
#5 = ORIENTED_EDGE ( 'NONE', *, *, #186, .F. ) ;
#6 = ORIENTED_EDGE ( 'NONE', *, *, #141, .T. ) ;
#7 = CARTESIAN_POINT ( 'NONE',  ( 0.000000000000000000, 0.000000000000000000, 0.000000000000000000 ) ) ;
#8 = DIRECTION ( 'NONE',  ( 0.000000000000000000, 0.000000000000000000, 1.000000000000000000 ) ) ;
#9 = ORIENTED_EDGE ( 'NONE', *, *, #141, .F. ) ;
#10 = CARTESIAN_POINT ( 'NONE',  ( -22.85000000000000142, 2.798317936051702316E-15, -0.2000000000000000111 ) ) ;
#11 = AXIS2_PLACEMENT_3D ( 'NONE', #109, #8, #131 ) ;
#12 = FACE_OUTER_BOUND ( 'NONE', #170, .T. ) ;
#13 = COORDINATED_UNIVERSAL_TIME_OFFSET ( 5, 0, .BEHIND. ) ;
#14 = VERTEX_POINT ( 'NONE', #3 ) ;
#15 = AXIS2_PLACEMENT_3D ( 'NONE', #270, #117, #160 ) ;
#16 = DIRECTION ( 'NONE',  ( 0.000000000000000000, 0.000000000000000000, 1.000000000000000000 ) ) ;
#17 = DIRECTION ( 'NONE',  ( 1.000000000000000000, 0.000000000000000000, 0.000000000000000000 ) ) ;
#18 = PERSON_AND_ORGANIZATION_ROLE ( 'creator' ) ;
#19 = VERTEX_POINT ( 'NONE', #152 ) ;
#20 = APPLICATION_PROTOCOL_DEFINITION ( 'international standard', 'config_control_design', 1994, #25 ) ;
#21 = CC_DESIGN_SECURITY_CLASSIFICATION ( #34, ( #256 ) ) ;
#22 = DATE_TIME_ROLE ( 'creation_date' ) ;
#23 = ADVANCED_FACE ( 'NONE', ( #43 ), #128, .F. ) ;
#24 = ORIENTED_EDGE ( 'NONE', *, *, #37, .F. ) ;
#25 = APPLICATION_CONTEXT ( 'configuration controlled 3d designs of mechanical parts and assemblies' ) ;
#26 = CIRCLE ( 'NONE', #98, 25.00000000000000000 ) ;
#27 = ADVANCED_FACE ( 'NONE', ( #121 ), #179, .T. ) ;
#28 = ORIENTED_EDGE ( 'NONE', *, *, #228, .F. ) ;
#29 = DIRECTION ( 'NONE',  ( 0.000000000000000000, 0.000000000000000000, 1.000000000000000000 ) ) ;
#30 = AXIS2_PLACEMENT_3D ( 'NONE', #231, #133, #86 ) ;
#31 = LOCAL_TIME ( 14, 0, 31.00000000000000000, #78 ) ;
#32 = LINE ( 'NONE', #10, #298 ) ;
#33 = DIRECTION ( 'NONE',  ( 0.000000000000000000, 0.000000000000000000, 1.000000000000000000 ) ) ;
#34 = SECURITY_CLASSIFICATION ( '', '', #192 ) ;
#35 = DIRECTION ( 'NONE',  ( 1.000000000000000000, 0.000000000000000000, 0.000000000000000000 ) ) ;
#36 = CIRCLE ( 'NONE', #317, 22.85000000000000142 ) ;
#37 = EDGE_CURVE ( 'NONE', #52, #283, #213, .T. ) ;
#38 = CARTESIAN_POINT ( 'NONE',  ( 0.000000000000000000, 0.000000000000000000, 4.500000000000000000 ) ) ;
#39 = CARTESIAN_POINT ( 'NONE',  ( 0.000000000000000000, 0.000000000000000000, -0.2000000000000000111 ) ) ;
#40 = ORIENTED_EDGE ( 'NONE', *, *, #304, .F. ) ;
#41 = DIRECTION ( 'NONE',  ( 1.000000000000000000, 0.000000000000000000, 0.000000000000000000 ) ) ;
#42 = CARTESIAN_POINT ( 'NONE',  ( 0.000000000000000000, 0.000000000000000000, -0.2000000000000000111 ) ) ;
#43 = FACE_OUTER_BOUND ( 'NONE', #294, .T. ) ;
#44 = EDGE_CURVE ( 'NONE', #156, #101, #218, .T. ) ;
#45 = DIRECTION ( 'NONE',  ( 1.000000000000000000, 0.000000000000000000, 0.000000000000000000 ) ) ;
#46 = PRODUCT_DEFINITION ( 'UNKNOWN', '', #256, #333 ) ;
#47 = DIRECTION ( 'NONE',  ( 0.000000000000000000, 0.000000000000000000, 1.000000000000000000 ) ) ;
#48 = FACE_OUTER_BOUND ( 'NONE', #136, .T. ) ;
#49 = PERSON_AND_ORGANIZATION ( #321, #63 ) ;
#50 = PRODUCT_DEFINITION_SHAPE ( 'NONE', 'NONE',  #46 ) ;
#51 = LINE ( 'NONE', #191, #258 ) ;
#52 = VERTEX_POINT ( 'NONE', #65 ) ;
#53 = AXIS2_PLACEMENT_3D ( 'NONE', #225, #253, #180 ) ;
#54 = DATE_AND_TIME ( #194, #139 ) ;
#55 = ORIENTED_EDGE ( 'NONE', *, *, #289, .T. ) ;
#56 = CC_DESIGN_PERSON_AND_ORGANIZATION_ASSIGNMENT ( #112, #97, ( #256 ) ) ;
#57 = FACE_OUTER_BOUND ( 'NONE', #290, .T. ) ;
#58 = PLANE ( 'NONE',  #92 ) ;
#59 = APPROVAL_DATE_TIME ( #325, #286 ) ;
#60 = DIRECTION ( 'NONE',  ( 0.000000000000000000, 0.000000000000000000, 1.000000000000000000 ) ) ;
#61 = CARTESIAN_POINT ( 'NONE',  ( -22.85000000000000142, 2.798317936051702316E-15, -0.2000000000000000111 ) ) ;
#62 = CARTESIAN_POINT ( 'NONE',  ( 0.000000000000000000, 0.000000000000000000, -0.2000000000000000111 ) ) ;
#63 = ORGANIZATION ( 'UNSPECIFIED', 'UNSPECIFIED', '' ) ;
#64 = EDGE_LOOP ( 'NONE', ( #24, #5 ) ) ;
#65 = CARTESIAN_POINT ( 'NONE',  ( 25.00000000000000000, 0.000000000000000000, -0.2000000000000000111 ) ) ;
#66 = DIRECTION ( 'NONE',  ( 1.000000000000000000, 0.000000000000000000, 0.000000000000000000 ) ) ;
#67 = DIRECTION ( 'NONE',  ( 1.000000000000000000, 0.000000000000000000, -0.000000000000000000 ) ) ;
#68 = CYLINDRICAL_SURFACE ( 'NONE', #202, 25.00000000000000000 ) ;
#69 = CC_DESIGN_DATE_AND_TIME_ASSIGNMENT ( #255, #331, ( #34 ) ) ;
#70 = ORIENTED_EDGE ( 'NONE', *, *, #254, .T. ) ;
#71 = CARTESIAN_POINT ( 'NONE',  ( 0.000000000000000000, 0.000000000000000000, 3.000000000000000000 ) ) ;
#72 = ORIENTED_EDGE ( 'NONE', *, *, #186, .T. ) ;
#73 = AXIS2_PLACEMENT_3D ( 'NONE', #71, #303, #164 ) ;
#74 = APPROVAL_STATUS ( 'not_yet_approved' ) ;
#75 = ORIENTED_EDGE ( 'NONE', *, *, #44, .F. ) ;
#76 = LOCAL_TIME ( 14, 0, 31.00000000000000000, #13 ) ;
#77 = EDGE_CURVE ( 'NONE', #329, #142, #328, .T. ) ;
#78 = COORDINATED_UNIVERSAL_TIME_OFFSET ( 5, 0, .BEHIND. ) ;
#79 = ADVANCED_FACE ( 'NONE', ( #48 ), #181, .F. ) ;
#80 = EDGE_LOOP ( 'NONE', ( #116, #132, #259, #9 ) ) ;
#81 = PERSON_AND_ORGANIZATION ( #321, #63 ) ;
#82 =( GEOMETRIC_REPRESENTATION_CONTEXT ( 3 ) GLOBAL_UNCERTAINTY_ASSIGNED_CONTEXT ( ( #100 ) ) GLOBAL_UNIT_ASSIGNED_CONTEXT ( ( #242, #113, #216 ) ) REPRESENTATION_CONTEXT ( 'NONE', 'WORKASPACE' ) );
#83 = DIRECTION ( 'NONE',  ( 0.000000000000000000, 0.000000000000000000, 1.000000000000000000 ) ) ;
#84 = CIRCLE ( 'NONE', #172, 22.85000000000000142 ) ;
#85 = CARTESIAN_POINT ( 'NONE',  ( -22.85000000000000142, 2.798317936051702316E-15, 4.500000000000000000 ) ) ;
#86 = DIRECTION ( 'NONE',  ( 1.000000000000000000, 0.000000000000000000, 0.000000000000000000 ) ) ;
#87 = CARTESIAN_POINT ( 'NONE',  ( 0.000000000000000000, 0.000000000000000000, 0.000000000000000000 ) ) ;
#88 = CC_DESIGN_PERSON_AND_ORGANIZATION_ASSIGNMENT ( #201, #305, ( #34 ) ) ;
#89 = FACE_BOUND ( 'NONE', #204, .T. ) ;
#90 = DIRECTION ( 'NONE',  ( -0.000000000000000000, -0.000000000000000000, -1.000000000000000000 ) ) ;
#91 = DIRECTION ( 'NONE',  ( 0.000000000000000000, 0.000000000000000000, 1.000000000000000000 ) ) ;
#92 = AXIS2_PLACEMENT_3D ( 'NONE', #159, #229, #206 ) ;
#93 = PLANE ( 'NONE',  #4 ) ;
#94 = FACE_OUTER_BOUND ( 'NONE', #177, .T. ) ;
#95 = ORIENTED_EDGE ( 'NONE', *, *, #148, .T. ) ;
#96 = ADVANCED_FACE ( 'NONE', ( #315, #280 ), #157, .T. ) ;
#97 = PERSON_AND_ORGANIZATION_ROLE ( 'design_supplier' ) ;
#98 = AXIS2_PLACEMENT_3D ( 'NONE', #137, #16, #17 ) ;
#99 = CIRCLE ( 'NONE', #175, 22.85000000000000142 ) ;
#100 = UNCERTAINTY_MEASURE_WITH_UNIT (LENGTH_MEASURE( 1.000000000000000082E-05 ), #242, 'distance_accuracy_value', 'NONE');
#101 = VERTEX_POINT ( 'NONE', #263 ) ;
#102 = ADVANCED_FACE ( 'NONE', ( #273 ), #236, .F. ) ;
#103 = CYLINDRICAL_SURFACE ( 'NONE', #15, 22.85000000000000142 ) ;
#104 = EDGE_LOOP ( 'NONE', ( #174, #311 ) ) ;
#105 = CC_DESIGN_APPROVAL ( #286, ( #34 ) ) ;
#106 = ORIENTED_EDGE ( 'NONE', *, *, #289, .F. ) ;
#107 = AXIS2_PLACEMENT_3D ( 'NONE', #184, #60, #210 ) ;
#108 = DIRECTION ( 'NONE',  ( 0.000000000000000000, 0.000000000000000000, 1.000000000000000000 ) ) ;
#109 = CARTESIAN_POINT ( 'NONE',  ( 0.000000000000000000, 0.000000000000000000, -0.2000000000000000111 ) ) ;
#110 = DIRECTION ( 'NONE',  ( 1.000000000000000000, 0.000000000000000000, 0.000000000000000000 ) ) ;
#111 = EDGE_LOOP ( 'NONE', ( #167, #158 ) ) ;
#112 = PERSON_AND_ORGANIZATION ( #321, #63 ) ;
#113 =( NAMED_UNIT ( * ) PLANE_ANGLE_UNIT ( ) SI_UNIT ( $, .RADIAN. ) );
#114 = CARTESIAN_POINT ( 'NONE',  ( -25.00000000000000000, 3.061616997868383043E-15, -0.2000000000000000111 ) ) ;
#115 = FACE_OUTER_BOUND ( 'NONE', #64, .T. ) ;
#116 = ORIENTED_EDGE ( 'NONE', *, *, #249, .F. ) ;
#117 = DIRECTION ( 'NONE',  ( 0.000000000000000000, 0.000000000000000000, 1.000000000000000000 ) ) ;
#118 = EDGE_CURVE ( 'NONE', #334, #142, #32, .T. ) ;
#119 = APPROVAL_ROLE ( '' ) ;
#120 = LOCAL_TIME ( 14, 0, 31.00000000000000000, #161 ) ;
#121 = FACE_OUTER_BOUND ( 'NONE', #111, .T. ) ;
#122 = MECHANICAL_CONTEXT ( 'NONE', #138, 'mechanical' ) ;
#123 = ORIENTED_EDGE ( 'NONE', *, *, #77, .T. ) ;
#124 = ORIENTED_EDGE ( 'NONE', *, *, #271, .T. ) ;
#125 = AXIS2_PLACEMENT_3D ( 'NONE', #62, #267, #238 ) ;
#126 = ADVANCED_FACE ( 'NONE', ( #94 ), #288, .T. ) ;
#127 = PERSON_AND_ORGANIZATION ( #321, #63 ) ;
#128 = CYLINDRICAL_SURFACE ( 'NONE', #296, 22.85000000000000142 ) ;
#129 = CARTESIAN_POINT ( 'NONE',  ( 0.000000000000000000, 0.000000000000000000, 3.000000000000000000 ) ) ;
#130 = PRODUCT_RELATED_PRODUCT_CATEGORY ( 'detail', '', ( #262 ) ) ;
#131 = DIRECTION ( 'NONE',  ( 1.000000000000000000, 0.000000000000000000, 0.000000000000000000 ) ) ;
#132 = ORIENTED_EDGE ( 'NONE', *, *, #118, .T. ) ;
#133 = DIRECTION ( 'NONE',  ( 0.000000000000000000, 0.000000000000000000, 1.000000000000000000 ) ) ;
#134 = DIRECTION ( 'NONE',  ( 0.000000000000000000, 0.000000000000000000, 1.000000000000000000 ) ) ;
#135 = CIRCLE ( 'NONE', #73, 22.85000000000000142 ) ;
#136 = EDGE_LOOP ( 'NONE', ( #106, #190, #278, #28 ) ) ;
#137 = CARTESIAN_POINT ( 'NONE',  ( 0.000000000000000000, 0.000000000000000000, 4.500000000000000000 ) ) ;
#138 = APPLICATION_CONTEXT ( 'configuration controlled 3d designs of mechanical parts and assemblies' ) ;
#139 = LOCAL_TIME ( 14, 0, 31.00000000000000000, #226 ) ;
#140 = CLOSED_SHELL ( 'NONE', ( #102, #145, #79, #312, #126, #224, #23, #96, #176, #27 ) ) ;
#141 = EDGE_CURVE ( 'NONE', #222, #329, #146, .T. ) ;
#142 = VERTEX_POINT ( 'NONE', #85 ) ;
#143 = ORIENTED_EDGE ( 'NONE', *, *, #37, .T. ) ;
#144 = APPROVAL ( #74, 'UNSPECIFIED' ) ;
#145 = ADVANCED_FACE ( 'NONE', ( #12 ), #68, .T. ) ;
#146 = LINE ( 'NONE', #291, #151 ) ;
#147 = DIRECTION ( 'NONE',  ( 0.000000000000000000, 0.000000000000000000, 1.000000000000000000 ) ) ;
#148 = EDGE_CURVE ( 'NONE', #101, #14, #284, .T. ) ;
#149 = CARTESIAN_POINT ( 'NONE',  ( 0.000000000000000000, 0.000000000000000000, -0.2000000000000000111 ) ) ;
#150 = ADVANCED_BREP_SHAPE_REPRESENTATION ( 'Web Model 48513_48521', ( #155, #182 ), #82 ) ;
#151 = VECTOR ( 'NONE', #268, 1000.000000000000000 ) ;
#152 = CARTESIAN_POINT ( 'NONE',  ( -25.00000000000000000, 3.061616997868383043E-15, 4.500000000000000000 ) ) ;
#153 = DIRECTION ( 'NONE',  ( 0.000000000000000000, 0.000000000000000000, 1.000000000000000000 ) ) ;
#154 = CARTESIAN_POINT ( 'NONE',  ( 22.85000000000000142, 0.000000000000000000, 3.000000000000000000 ) ) ;
#155 = MANIFOLD_SOLID_BREP ( 'Boss-Extrude2', #140 ) ;
#156 = VERTEX_POINT ( 'NONE', #61 ) ;
#157 = PLANE ( 'NONE',  #332 ) ;
#158 = ORIENTED_EDGE ( 'NONE', *, *, #249, .T. ) ;
#159 = CARTESIAN_POINT ( 'NONE',  ( 0.000000000000000000, 0.000000000000000000, 0.000000000000000000 ) ) ;
#160 = DIRECTION ( 'NONE',  ( 1.000000000000000000, 0.000000000000000000, 0.000000000000000000 ) ) ;
#161 = COORDINATED_UNIVERSAL_TIME_OFFSET ( 5, 0, .BEHIND. ) ;
#162 = ORIENTED_EDGE ( 'NONE', *, *, #178, .F. ) ;
#163 = EDGE_CURVE ( 'NONE', #283, #19, #203, .T. ) ;
#164 = DIRECTION ( 'NONE',  ( 1.000000000000000000, 0.000000000000000000, 0.000000000000000000 ) ) ;
#165 = CC_DESIGN_PERSON_AND_ORGANIZATION_ASSIGNMENT ( #185, #18, ( #46 ) ) ;
#166 = APPLICATION_PROTOCOL_DEFINITION ( 'international standard', 'config_control_design', 1994, #138 ) ;
#167 = ORIENTED_EDGE ( 'NONE', *, *, #243, .T. ) ;
#168 = EDGE_LOOP ( 'NONE', ( #75, #196, #308, #219 ) ) ;
#169 = PERSON_AND_ORGANIZATION ( #321, #63 ) ;
#170 = EDGE_LOOP ( 'NONE', ( #143, #251, #285, #227 ) ) ;
#171 = PERSON_AND_ORGANIZATION_ROLE ( 'design_owner' ) ;
#172 = AXIS2_PLACEMENT_3D ( 'NONE', #39, #300, #66 ) ;
#173 = DIRECTION ( 'NONE',  ( 1.000000000000000000, 0.000000000000000000, 0.000000000000000000 ) ) ;
#174 = ORIENTED_EDGE ( 'NONE', *, *, #220, .T. ) ;
#175 = AXIS2_PLACEMENT_3D ( 'NONE', #187, #188, #41 ) ;
#176 = ADVANCED_FACE ( 'NONE', ( #57 ), #58, .F. ) ;
#177 = EDGE_LOOP ( 'NONE', ( #241, #72, #189, #162 ) ) ;
#178 = EDGE_CURVE ( 'NONE', #19, #209, #250, .T. ) ;
#179 = PLANE ( 'NONE',  #314 ) ;
#180 = DIRECTION ( 'NONE',  ( 1.000000000000000000, 0.000000000000000000, 0.000000000000000000 ) ) ;
#181 = CYLINDRICAL_SURFACE ( 'NONE', #276, 22.85000000000000142 ) ;
#182 = AXIS2_PLACEMENT_3D ( 'NONE', #217, #47, #173 ) ;
#183 = DIRECTION ( 'NONE',  ( 0.000000000000000000, 0.000000000000000000, 1.000000000000000000 ) ) ;
#184 = CARTESIAN_POINT ( 'NONE',  ( 0.000000000000000000, 0.000000000000000000, 4.500000000000000000 ) ) ;
#185 = PERSON_AND_ORGANIZATION ( #321, #63 ) ;
#186 = EDGE_CURVE ( 'NONE', #283, #52, #246, .T. ) ;
#187 = CARTESIAN_POINT ( 'NONE',  ( 0.000000000000000000, 0.000000000000000000, 3.000000000000000000 ) ) ;
#188 = DIRECTION ( 'NONE',  ( 0.000000000000000000, 0.000000000000000000, 1.000000000000000000 ) ) ;
#189 = ORIENTED_EDGE ( 'NONE', *, *, #233, .T. ) ;
#190 = ORIENTED_EDGE ( 'NONE', *, *, #44, .T. ) ;
#191 = CARTESIAN_POINT ( 'NONE',  ( 22.85000000000000142, 0.000000000000000000, -0.2000000000000000111 ) ) ;
#192 = SECURITY_CLASSIFICATION_LEVEL ( 'unclassified' ) ;
#193 = AXIS2_PLACEMENT_3D ( 'NONE', #87, #90, #272 ) ;
#194 = CALENDAR_DATE ( 2021, 23, 4 ) ;
#195 = PERSON_AND_ORGANIZATION_ROLE ( 'creator' ) ;
#196 = ORIENTED_EDGE ( 'NONE', *, *, #254, .F. ) ;
#197 = EDGE_LOOP ( 'NONE', ( #274, #40 ) ) ;
#198 = APPROVAL_DATE_TIME ( #54, #265 ) ;
#199 = CC_DESIGN_DATE_AND_TIME_ASSIGNMENT ( #221, #22, ( #46 ) ) ;
#200 = SHAPE_DEFINITION_REPRESENTATION ( #50, #150 ) ;
#201 = PERSON_AND_ORGANIZATION ( #321, #63 ) ;
#202 = AXIS2_PLACEMENT_3D ( 'NONE', #292, #183, #295 ) ;
#203 = LINE ( 'NONE', #264, #310 ) ;
#204 = EDGE_LOOP ( 'NONE', ( #70, #55 ) ) ;
#205 = CARTESIAN_POINT ( 'NONE',  ( 25.00000000000000000, 0.000000000000000000, 4.500000000000000000 ) ) ;
#206 = DIRECTION ( 'NONE',  ( 1.000000000000000000, 0.000000000000000000, -0.000000000000000000 ) ) ;
#207 = CALENDAR_DATE ( 2021, 23, 4 ) ;
#208 = CC_DESIGN_PERSON_AND_ORGANIZATION_ASSIGNMENT ( #127, #171, ( #262 ) ) ;
#209 = VERTEX_POINT ( 'NONE', #205 ) ;
#210 = DIRECTION ( 'NONE',  ( 1.000000000000000000, 0.000000000000000000, 0.000000000000000000 ) ) ;
#211 = CARTESIAN_POINT ( 'NONE',  ( 0.000000000000000000, 0.000000000000000000, 4.500000000000000000 ) ) ;
#212 = DIRECTION ( 'NONE',  ( 0.000000000000000000, 0.000000000000000000, 1.000000000000000000 ) ) ;
#213 = CIRCLE ( 'NONE', #53, 25.00000000000000000 ) ;
#214 = CALENDAR_DATE ( 2021, 23, 4 ) ;
#215 = DIRECTION ( 'NONE',  ( 1.000000000000000000, 0.000000000000000000, 0.000000000000000000 ) ) ;
#216 =( NAMED_UNIT ( * ) SI_UNIT ( $, .STERADIAN. ) SOLID_ANGLE_UNIT ( ) );
#217 = CARTESIAN_POINT ( 'NONE',  ( 0.000000000000000000, 0.000000000000000000, 0.000000000000000000 ) ) ;
#218 = LINE ( 'NONE', #318, #223 ) ;
#219 = ORIENTED_EDGE ( 'NONE', *, *, #148, .F. ) ;
#220 = EDGE_CURVE ( 'NONE', #209, #19, #26, .T. ) ;
#221 = DATE_AND_TIME ( #207, #31 ) ;
#222 = VERTEX_POINT ( 'NONE', #154 ) ;
#223 = VECTOR ( 'NONE', #29, 1000.000000000000000 ) ;
#224 = ADVANCED_FACE ( 'NONE', ( #89, #115 ), #93, .F. ) ;
#225 = CARTESIAN_POINT ( 'NONE',  ( 0.000000000000000000, 0.000000000000000000, -0.2000000000000000111 ) ) ;
#226 = COORDINATED_UNIVERSAL_TIME_OFFSET ( 5, 0, .BEHIND. ) ;
#227 = ORIENTED_EDGE ( 'NONE', *, *, #233, .F. ) ;
#228 = EDGE_CURVE ( 'NONE', #320, #14, #51, .T. ) ;
#229 = DIRECTION ( 'NONE',  ( 0.000000000000000000, 0.000000000000000000, 1.000000000000000000 ) ) ;
#230 = FACE_OUTER_BOUND ( 'NONE', #168, .T. ) ;
#231 = CARTESIAN_POINT ( 'NONE',  ( 0.000000000000000000, 0.000000000000000000, -0.2000000000000000111 ) ) ;
#232 = DIRECTION ( 'NONE',  ( 1.000000000000000000, 0.000000000000000000, 0.000000000000000000 ) ) ;
#233 = EDGE_CURVE ( 'NONE', #52, #209, #319, .T. ) ;
#234 = DIRECTION ( 'NONE',  ( 0.000000000000000000, 0.000000000000000000, 1.000000000000000000 ) ) ;
#235 = APPROVAL_DATE_TIME ( #266, #144 ) ;
#236 = CYLINDRICAL_SURFACE ( 'NONE', #30, 22.85000000000000142 ) ;
#237 = DIRECTION ( 'NONE',  ( 0.000000000000000000, 0.000000000000000000, 1.000000000000000000 ) ) ;
#238 = DIRECTION ( 'NONE',  ( 1.000000000000000000, 0.000000000000000000, 0.000000000000000000 ) ) ;
#239 = CARTESIAN_POINT ( 'NONE',  ( 0.000000000000000000, 0.000000000000000000, 4.500000000000000000 ) ) ;
#240 = VECTOR ( 'NONE', #277, 1000.000000000000000 ) ;
#241 = ORIENTED_EDGE ( 'NONE', *, *, #163, .F. ) ;
#242 =( LENGTH_UNIT ( ) NAMED_UNIT ( * ) SI_UNIT ( .MILLI., .METRE. ) );
#243 = EDGE_CURVE ( 'NONE', #222, #334, #99, .T. ) ;
#244 = APPROVAL_ROLE ( '' ) ;
#245 = CC_DESIGN_APPROVAL ( #144, ( #46 ) ) ;
#246 = CIRCLE ( 'NONE', #125, 25.00000000000000000 ) ;
#247 = APPROVAL_PERSON_ORGANIZATION ( #81, #286, #248 ) ;
#248 = APPROVAL_ROLE ( '' ) ;
#249 = EDGE_CURVE ( 'NONE', #334, #222, #135, .T. ) ;
#250 = CIRCLE ( 'NONE', #107, 25.00000000000000000 ) ;
#251 = ORIENTED_EDGE ( 'NONE', *, *, #163, .T. ) ;
#252 = APPROVAL_PERSON_ORGANIZATION ( #169, #265, #119 ) ;
#253 = DIRECTION ( 'NONE',  ( 0.000000000000000000, 0.000000000000000000, 1.000000000000000000 ) ) ;
#254 = EDGE_CURVE ( 'NONE', #320, #156, #302, .T. ) ;
#255 = DATE_AND_TIME ( #214, #299 ) ;
#256 = PRODUCT_DEFINITION_FORMATION_WITH_SPECIFIED_SOURCE ( 'ANY', '', #262, .NOT_KNOWN. ) ;
#257 = DIRECTION ( 'NONE',  ( 1.000000000000000000, 0.000000000000000000, -0.000000000000000000 ) ) ;
#258 = VECTOR ( 'NONE', #212, 1000.000000000000000 ) ;
#259 = ORIENTED_EDGE ( 'NONE', *, *, #304, .T. ) ;
#260 = CALENDAR_DATE ( 2021, 23, 4 ) ;
#261 = CARTESIAN_POINT ( 'NONE',  ( 0.000000000000000000, 0.000000000000000000, -0.2000000000000000111 ) ) ;
#262 = PRODUCT ( 'Web Model 48513_48521', 'Web Model 48513_48521', '', ( #122 ) ) ;
#263 = CARTESIAN_POINT ( 'NONE',  ( -22.85000000000000142, 2.798317936051702316E-15, 0.000000000000000000 ) ) ;
#264 = CARTESIAN_POINT ( 'NONE',  ( -25.00000000000000000, 3.061616997868383043E-15, -0.2000000000000000111 ) ) ;
#265 = APPROVAL ( #281, 'UNSPECIFIED' ) ;
#266 = DATE_AND_TIME ( #1, #120 ) ;
#267 = DIRECTION ( 'NONE',  ( 0.000000000000000000, 0.000000000000000000, 1.000000000000000000 ) ) ;
#268 = DIRECTION ( 'NONE',  ( 0.000000000000000000, 0.000000000000000000, 1.000000000000000000 ) ) ;
#269 = CC_DESIGN_APPROVAL ( #265, ( #256 ) ) ;
#270 = CARTESIAN_POINT ( 'NONE',  ( 0.000000000000000000, 0.000000000000000000, -0.2000000000000000111 ) ) ;
#271 = EDGE_CURVE ( 'NONE', #14, #101, #293, .T. ) ;
#272 = DIRECTION ( 'NONE',  ( 1.000000000000000000, 0.000000000000000000, 0.000000000000000000 ) ) ;
#273 = FACE_OUTER_BOUND ( 'NONE', #80, .T. ) ;
#274 = ORIENTED_EDGE ( 'NONE', *, *, #77, .F. ) ;
#275 = CARTESIAN_POINT ( 'NONE',  ( -22.85000000000000142, 2.798317936051702316E-15, 3.000000000000000000 ) ) ;
#276 = AXIS2_PLACEMENT_3D ( 'NONE', #261, #234, #35 ) ;
#277 = DIRECTION ( 'NONE',  ( 0.000000000000000000, 0.000000000000000000, 1.000000000000000000 ) ) ;
#278 = ORIENTED_EDGE ( 'NONE', *, *, #271, .F. ) ;
#279 = APPROVAL_STATUS ( 'not_yet_approved' ) ;
#280 = FACE_BOUND ( 'NONE', #197, .T. ) ;
#281 = APPROVAL_STATUS ( 'not_yet_approved' ) ;
#282 = COORDINATED_UNIVERSAL_TIME_OFFSET ( 5, 0, .BEHIND. ) ;
#283 = VERTEX_POINT ( 'NONE', #114 ) ;
#284 = CIRCLE ( 'NONE', #309, 22.85000000000000142 ) ;
#285 = ORIENTED_EDGE ( 'NONE', *, *, #220, .F. ) ;
#286 = APPROVAL ( #279, 'UNSPECIFIED' ) ;
#287 = CC_DESIGN_PERSON_AND_ORGANIZATION_ASSIGNMENT ( #49, #195, ( #256 ) ) ;
#288 = CYLINDRICAL_SURFACE ( 'NONE', #11, 25.00000000000000000 ) ;
#289 = EDGE_CURVE ( 'NONE', #156, #320, #84, .T. ) ;
#290 = EDGE_LOOP ( 'NONE', ( #124, #95 ) ) ;
#291 = CARTESIAN_POINT ( 'NONE',  ( 22.85000000000000142, 0.000000000000000000, -0.2000000000000000111 ) ) ;
#292 = CARTESIAN_POINT ( 'NONE',  ( 0.000000000000000000, 0.000000000000000000, -0.2000000000000000111 ) ) ;
#293 = CIRCLE ( 'NONE', #193, 22.85000000000000142 ) ;
#294 = EDGE_LOOP ( 'NONE', ( #335, #2, #6, #123 ) ) ;
#295 = DIRECTION ( 'NONE',  ( 1.000000000000000000, 0.000000000000000000, 0.000000000000000000 ) ) ;
#296 = AXIS2_PLACEMENT_3D ( 'NONE', #149, #147, #316 ) ;
#297 = DIRECTION ( 'NONE',  ( -0.000000000000000000, -0.000000000000000000, -1.000000000000000000 ) ) ;
#298 = VECTOR ( 'NONE', #108, 1000.000000000000000 ) ;
#299 = LOCAL_TIME ( 14, 0, 31.00000000000000000, #282 ) ;
#300 = DIRECTION ( 'NONE',  ( 0.000000000000000000, 0.000000000000000000, 1.000000000000000000 ) ) ;
#301 = CARTESIAN_POINT ( 'NONE',  ( 22.85000000000000142, 0.000000000000000000, -0.2000000000000000111 ) ) ;
#302 = CIRCLE ( 'NONE', #306, 22.85000000000000142 ) ;
#303 = DIRECTION ( 'NONE',  ( 0.000000000000000000, 0.000000000000000000, 1.000000000000000000 ) ) ;
#304 = EDGE_CURVE ( 'NONE', #142, #329, #36, .T. ) ;
#305 = PERSON_AND_ORGANIZATION_ROLE ( 'classification_officer' ) ;
#306 = AXIS2_PLACEMENT_3D ( 'NONE', #42, #134, #215 ) ;
#307 = APPROVAL_PERSON_ORGANIZATION ( #313, #144, #244 ) ;
#308 = ORIENTED_EDGE ( 'NONE', *, *, #228, .T. ) ;
#309 = AXIS2_PLACEMENT_3D ( 'NONE', #7, #297, #110 ) ;
#310 = VECTOR ( 'NONE', #153, 1000.000000000000000 ) ;
#311 = ORIENTED_EDGE ( 'NONE', *, *, #178, .T. ) ;
#312 = ADVANCED_FACE ( 'NONE', ( #230 ), #103, .F. ) ;
#313 = PERSON_AND_ORGANIZATION ( #321, #63 ) ;
#314 = AXIS2_PLACEMENT_3D ( 'NONE', #129, #33, #257 ) ;
#315 = FACE_OUTER_BOUND ( 'NONE', #104, .T. ) ;
#316 = DIRECTION ( 'NONE',  ( 1.000000000000000000, 0.000000000000000000, 0.000000000000000000 ) ) ;
#317 = AXIS2_PLACEMENT_3D ( 'NONE', #239, #91, #45 ) ;
#318 = CARTESIAN_POINT ( 'NONE',  ( -22.85000000000000142, 2.798317936051702316E-15, -0.2000000000000000111 ) ) ;
#319 = LINE ( 'NONE', #324, #240 ) ;
#320 = VERTEX_POINT ( 'NONE', #301 ) ;
#321 = PERSON ( 'UNSPECIFIED', 'UNSPECIFIED', 'UNSPECIFIED', ('UNSPECIFIED'), ('UNSPECIFIED'), ('UNSPECIFIED') ) ;
#322 = DIRECTION ( 'NONE',  ( 0.000000000000000000, 0.000000000000000000, 1.000000000000000000 ) ) ;
#323 = DIRECTION ( 'NONE',  ( 1.000000000000000000, 0.000000000000000000, -0.000000000000000000 ) ) ;
#324 = CARTESIAN_POINT ( 'NONE',  ( 25.00000000000000000, 0.000000000000000000, -0.2000000000000000111 ) ) ;
#325 = DATE_AND_TIME ( #260, #76 ) ;
#326 = CARTESIAN_POINT ( 'NONE',  ( 22.85000000000000142, 0.000000000000000000, 4.500000000000000000 ) ) ;
#327 = AXIS2_PLACEMENT_3D ( 'NONE', #38, #322, #232 ) ;
#328 = CIRCLE ( 'NONE', #327, 22.85000000000000142 ) ;
#329 = VERTEX_POINT ( 'NONE', #326 ) ;
#330 = CARTESIAN_POINT ( 'NONE',  ( 0.000000000000000000, 0.000000000000000000, -0.2000000000000000111 ) ) ;
#331 = DATE_TIME_ROLE ( 'classification_date' ) ;
#332 = AXIS2_PLACEMENT_3D ( 'NONE', #211, #83, #323 ) ;
#333 = DESIGN_CONTEXT ( 'detailed design', #25, 'design' ) ;
#334 = VERTEX_POINT ( 'NONE', #275 ) ;
#335 = ORIENTED_EDGE ( 'NONE', *, *, #118, .F. ) ;
ENDSEC;
END-ISO-10303-21;
