ISO-10303-21;
HEADER;
FILE_DESCRIPTION (( 'STEP AP203' ),
    '1' );
FILE_NAME ('TTN099145-E0W.STEP',
    '2019-12-09T20:56:14',
    ( '' ),
    ( '' ),
    'SwSTEP 2.0',
    'SolidWorks 2018',
    '' );
FILE_SCHEMA (( 'CONFIG_CONTROL_DESIGN' ));
ENDSEC;

DATA;
#1 = DIRECTION ( 'NONE',  ( 0.0000000000000000000, 1.000000000000000000, 2.638362701105409535E-16 ) ) ;
#2 = APPROVAL_PERSON_ORGANIZATION ( #252, #227, #151 ) ;
#3 = COORDINATED_UNIVERSAL_TIME_OFFSET ( 5, 0, .BEHIND. ) ;
#4 = FACE_OUTER_BOUND ( 'NONE', #153, .T. ) ;
#5 = EDGE_CURVE ( 'NONE', #8, #175, #185, .T. ) ;
#6 = PRODUCT_DEFINITION_SHAPE ( 'NONE', 'NONE',  #149 ) ;
#7 = CARTESIAN_POINT ( 'NONE',  ( 0.0000000000000000000, 12.69999999999999929, -1.184700517951640331 ) ) ;
#8 = VERTEX_POINT ( 'NONE', #93 ) ;
#9 = CARTESIAN_POINT ( 'NONE',  ( 0.0000000000000000000, 1.224606353822407087E-16, -1.184700517951644105 ) ) ;
#10 = AXIS2_PLACEMENT_3D ( 'NONE', #267, #261, #168 ) ;
#11 = APPROVAL_STATUS ( 'not_yet_approved' ) ;
#12 = EDGE_LOOP ( 'NONE', ( #36, #79, #138, #279 ) ) ;
#13 = CIRCLE ( 'NONE', #81, 105.2000000000000171 ) ;
#14 = ORIENTED_EDGE ( 'NONE', *, *, #229, .F. ) ;
#15 = AXIS2_PLACEMENT_3D ( 'NONE', #72, #120, #235 ) ;
#16 = COORDINATED_UNIVERSAL_TIME_OFFSET ( 5, 0, .BEHIND. ) ;
#17 = CARTESIAN_POINT ( 'NONE',  ( 1.530808498934192310E-15, 12.50000000000000711, -1.384700517951632293 ) ) ;
#18 = LINE ( 'NONE', #216, #48 ) ;
#19 = EDGE_CURVE ( 'NONE', #8, #262, #46, .T. ) ;
#20 = ORIENTED_EDGE ( 'NONE', *, *, #167, .T. ) ;
#21 = CARTESIAN_POINT ( 'NONE',  ( 0.0000000000000000000, -6.029352554478859928E-16, 1.184700517951658094 ) ) ;
#22 = PERSON_AND_ORGANIZATION ( #299, #292 ) ;
#23 = CARTESIAN_POINT ( 'NONE',  ( 0.0000000000000000000, 12.69999999999999929, 1.184700517951661869 ) ) ;
#24 = AXIS2_PLACEMENT_3D ( 'NONE', #209, #44, #188 ) ;
#25 = ORIENTED_EDGE ( 'NONE', *, *, #103, .F. ) ;
#26 = EDGE_LOOP ( 'NONE', ( #173, #197 ) ) ;
#27 = CARTESIAN_POINT ( 'NONE',  ( 0.0000000000000000000, -6.029352554478859928E-16, 1.184700517951658094 ) ) ;
#28 = APPROVAL_DATE_TIME ( #186, #227 ) ;
#29 = LINE ( 'NONE', #74, #140 ) ;
#30 = DIRECTION ( 'NONE',  ( 0.0000000000000000000, 1.000000000000000000, 3.073328992872296367E-16 ) ) ;
#31 = EDGE_LOOP ( 'NONE', ( #143, #142, #77, #198 ) ) ;
#32 =( LENGTH_UNIT ( ) NAMED_UNIT ( * ) SI_UNIT ( .MILLI., .METRE. ) );
#33 = ADVANCED_FACE ( 'NONE', ( #49 ), #109, .T. ) ;
#34 = CARTESIAN_POINT ( 'NONE',  ( 0.0000000000000000000, 12.69999999999999929, 1.184700517951661869 ) ) ;
#35 = DIRECTION ( 'NONE',  ( 0.0000000000000000000, -3.061515884556004775E-16, 1.000000000000000000 ) ) ;
#36 = ORIENTED_EDGE ( 'NONE', *, *, #5, .F. ) ;
#37 = VECTOR ( 'NONE', #50, 1000.000000000000000 ) ;
#38 = ORIENTED_EDGE ( 'NONE', *, *, #180, .F. ) ;
#39 = EDGE_CURVE ( 'NONE', #175, #73, #178, .T. ) ;
#40 = CC_DESIGN_DATE_AND_TIME_ASSIGNMENT ( #238, #85, ( #149 ) ) ;
#41 = CC_DESIGN_PERSON_AND_ORGANIZATION_ASSIGNMENT ( #233, #107, ( #277 ) ) ;
#42 = FACE_OUTER_BOUND ( 'NONE', #122, .T. ) ;
#43 = CARTESIAN_POINT ( 'NONE',  ( 1.555301434917138433E-15, -12.69999999999999929, -1.184700517951648102 ) ) ;
#44 = DIRECTION ( 'NONE',  ( 0.0000000000000000000, -3.061515884555942652E-16, 1.000000000000000000 ) ) ;
#45 = ORIENTED_EDGE ( 'NONE', *, *, #68, .T. ) ;
#46 = LINE ( 'NONE', #17, #282 ) ;
#47 = DIRECTION ( 'NONE',  ( 8.659560562354930393E-17, 0.7071067811865471286, 0.7071067811865479058 ) ) ;
#48 = VECTOR ( 'NONE', #244, 1000.000000000000000 ) ;
#49 = FACE_OUTER_BOUND ( 'NONE', #64, .T. ) ;
#50 = DIRECTION ( 'NONE',  ( 0.0000000000000000000, 0.7485727865278949400, -0.6630526248118340238 ) ) ;
#51 = DATE_AND_TIME ( #169, #228 ) ;
#52 = CIRCLE ( 'NONE', #141, 12.69999999999999929 ) ;
#53 = DIRECTION ( 'NONE',  ( 0.0000000000000000000, -3.061515884555942652E-16, 1.000000000000000000 ) ) ;
#54 = CC_DESIGN_SECURITY_CLASSIFICATION ( #211, ( #182 ) ) ;
#55 = APPLICATION_CONTEXT ( 'configuration controlled 3d designs of mechanical parts and assemblies' ) ;
#56 = COORDINATED_UNIVERSAL_TIME_OFFSET ( 5, 0, .BEHIND. ) ;
#57 = DIRECTION ( 'NONE',  ( 1.000000000000000000, 0.0000000000000000000, 0.0000000000000000000 ) ) ;
#58 = APPROVAL_PERSON_ORGANIZATION ( #22, #165, #226 ) ;
#59 = PERSON_AND_ORGANIZATION_ROLE ( 'classification_officer' ) ;
#60 = VERTEX_POINT ( 'NONE', #65 ) ;
#61 = DATE_AND_TIME ( #161, #127 ) ;
#62 = ADVANCED_FACE ( 'NONE', ( #260 ), #144, .T. ) ;
#63 = DIRECTION ( 'NONE',  ( 0.0000000000000000000, 1.000000000000000000, 3.122502256758250798E-16 ) ) ;
#64 = EDGE_LOOP ( 'NONE', ( #275, #69, #174, #176 ) ) ;
#65 = CARTESIAN_POINT ( 'NONE',  ( 0.0000000000000000000, 12.50127230455358784, 1.360724710201237420 ) ) ;
#66 = CALENDAR_DATE ( 2019, 9, 12 ) ;
#67 = CARTESIAN_POINT ( 'NONE',  ( 0.0000000000000000000, 1.885115387487940639E-14, 1.360724710201232313 ) ) ;
#68 = EDGE_CURVE ( 'NONE', #60, #115, #13, .T. ) ;
#69 = ORIENTED_EDGE ( 'NONE', *, *, #87, .F. ) ;
#70 = DIRECTION ( 'NONE',  ( 0.0000000000000000000, -1.000000000000000000, -3.073328992872296367E-16 ) ) ;
#71 = AXIS2_PLACEMENT_3D ( 'NONE', #241, #35, #104 ) ;
#72 = CARTESIAN_POINT ( 'NONE',  ( 0.0000000000000000000, -6.029352554478859928E-16, 1.184700517951658094 ) ) ;
#73 = VERTEX_POINT ( 'NONE', #43 ) ;
#74 = CARTESIAN_POINT ( 'NONE',  ( 0.0000000000000000000, 12.69999999999999929, -1.384700517951630294 ) ) ;
#75 = CALENDAR_DATE ( 2019, 9, 12 ) ;
#76 = CIRCLE ( 'NONE', #255, 12.69999999999999929 ) ;
#77 = ORIENTED_EDGE ( 'NONE', *, *, #103, .T. ) ;
#78 = CARTESIAN_POINT ( 'NONE',  ( 0.0000000000000000000, 1.836909530733571311E-16, -1.384700517951636289 ) ) ;
#79 = ORIENTED_EDGE ( 'NONE', *, *, #19, .T. ) ;
#80 = CIRCLE ( 'NONE', #300, 105.2000000000000171 ) ;
#81 = AXIS2_PLACEMENT_3D ( 'NONE', #230, #208, #92 ) ;
#82 = DIRECTION ( 'NONE',  ( 0.0000000000000000000, -3.061515884555942652E-16, 1.000000000000000000 ) ) ;
#83 = APPLICATION_CONTEXT ( 'configuration controlled 3d designs of mechanical parts and assemblies' ) ;
#84 = ORIENTED_EDGE ( 'NONE', *, *, #236, .F. ) ;
#85 = DATE_TIME_ROLE ( 'creation_date' ) ;
#86 = CYLINDRICAL_SURFACE ( 'NONE', #270, 12.69999999999999929 ) ;
#87 = EDGE_CURVE ( 'NONE', #175, #8, #265, .T. ) ;
#88 = EDGE_CURVE ( 'NONE', #159, #60, #213, .T. ) ;
#89 = ADVANCED_FACE ( 'NONE', ( #136 ), #256, .T. ) ;
#90 = VECTOR ( 'NONE', #249, 1000.000000000000000 ) ;
#91 = DIRECTION ( 'NONE',  ( -0.0000000000000000000, 3.061515884555943146E-16, -1.000000000000000000 ) ) ;
#92 = DIRECTION ( 'NONE',  ( 0.0000000000000000000, 0.0000000000000000000, 1.000000000000000000 ) ) ;
#93 = CARTESIAN_POINT ( 'NONE',  ( 1.543054966925665470E-15, 12.50000000000000711, -1.384700517951632293 ) ) ;
#94 = FACE_OUTER_BOUND ( 'NONE', #297, .T. ) ;
#95 = AXIS2_PLACEMENT_3D ( 'NONE', #237, #278, #1 ) ;
#96 = CARTESIAN_POINT ( 'NONE',  ( 0.0000000000000000000, 1.836909530733565148E-16, -1.384700517951634291 ) ) ;
#97 = DIRECTION ( 'NONE',  ( 0.0000000000000000000, -3.061515884555942652E-16, 1.000000000000000000 ) ) ;
#98 = CC_DESIGN_APPROVAL ( #147, ( #182 ) ) ;
#99 = DIRECTION ( 'NONE',  ( 1.000000000000000000, 0.0000000000000000000, -0.0000000000000000000 ) ) ;
#100 = EDGE_CURVE ( 'NONE', #262, #73, #76, .T. ) ;
#101 = ORIENTED_EDGE ( 'NONE', *, *, #152, .F. ) ;
#102 = CARTESIAN_POINT ( 'NONE',  ( 0.0000000000000000000, -6.029352554478859928E-16, 1.184700517951658094 ) ) ;
#103 = EDGE_CURVE ( 'NONE', #158, #262, #29, .T. ) ;
#104 = DIRECTION ( 'NONE',  ( 0.0000000000000000000, -1.000000000000000000, -3.122184467197083493E-16 ) ) ;
#105 = CC_DESIGN_APPROVAL ( #227, ( #211 ) ) ;
#106 =( NAMED_UNIT ( * ) PLANE_ANGLE_UNIT ( ) SI_UNIT ( $, .RADIAN. ) );
#107 = PERSON_AND_ORGANIZATION_ROLE ( 'design_owner' ) ;
#108 = APPROVAL_DATE_TIME ( #61, #147 ) ;
#109 = CONICAL_SURFACE ( 'NONE', #24, 12.50000000000000711, 0.7853981633974480570 ) ;
#110 = DATE_TIME_ROLE ( 'classification_date' ) ;
#111 = COORDINATED_UNIVERSAL_TIME_OFFSET ( 5, 0, .BEHIND. ) ;
#112 = ORIENTED_EDGE ( 'NONE', *, *, #229, .T. ) ;
#113 = CC_DESIGN_PERSON_AND_ORGANIZATION_ASSIGNMENT ( #293, #251, ( #182 ) ) ;
#114 = DIRECTION ( 'NONE',  ( 0.0000000000000000000, -1.000000000000000000, -3.122184467197083493E-16 ) ) ;
#115 = VERTEX_POINT ( 'NONE', #164 ) ;
#116 = EDGE_LOOP ( 'NONE', ( #14, #84, #271, #263 ) ) ;
#117 = APPROVAL_DATE_TIME ( #232, #165 ) ;
#118 = CONICAL_SURFACE ( 'NONE', #15, 12.69999999999999929, 0.8459069665502284563 ) ;
#119 = DIRECTION ( 'NONE',  ( -0.0000000000000000000, 3.061515884555943146E-16, -1.000000000000000000 ) ) ;
#120 = DIRECTION ( 'NONE',  ( -0.0000000000000000000, 3.061515884556004775E-16, -1.000000000000000000 ) ) ;
#121 = AXIS2_PLACEMENT_3D ( 'NONE', #218, #266, #57 ) ;
#122 = EDGE_LOOP ( 'NONE', ( #38, #184, #45 ) ) ;
#123 = DIRECTION ( 'NONE',  ( -0.0000000000000000000, 3.061515884555943146E-16, -1.000000000000000000 ) ) ;
#124 = CC_DESIGN_DATE_AND_TIME_ASSIGNMENT ( #51, #110, ( #211 ) ) ;
#125 = DIRECTION ( 'NONE',  ( 0.0000000000000000000, 1.000000000000000000, 2.638362701105409535E-16 ) ) ;
#126 = ADVANCED_FACE ( 'NONE', ( #94 ), #86, .T. ) ;
#127 = LOCAL_TIME ( 15, 56, 14.00000000000000000, #16 ) ;
#128 = APPLICATION_PROTOCOL_DEFINITION ( 'international standard', 'config_control_design', 1994, #83 ) ;
#129 = APPROVAL_STATUS ( 'not_yet_approved' ) ;
#130 = CC_DESIGN_PERSON_AND_ORGANIZATION_ASSIGNMENT ( #287, #201, ( #182 ) ) ;
#131 = FACE_OUTER_BOUND ( 'NONE', #12, .T. ) ;
#132 = ADVANCED_FACE ( 'NONE', ( #4 ), #118, .T. ) ;
#133 = UNCERTAINTY_MEASURE_WITH_UNIT (LENGTH_MEASURE( 1.000000000000000082E-05 ), #32, 'distance_accuracy_value', 'NONE');
#134 = CIRCLE ( 'NONE', #280, 12.69999999999999929 ) ;
#135 = CARTESIAN_POINT ( 'NONE',  ( 0.0000000000000000000, 1.836909530733571064E-16, -1.384700517951636289 ) ) ;
#136 = FACE_OUTER_BOUND ( 'NONE', #26, .T. ) ;
#137 = DESIGN_CONTEXT ( 'detailed design', #83, 'design' ) ;
#138 = ORIENTED_EDGE ( 'NONE', *, *, #290, .F. ) ;
#139 = DIRECTION ( 'NONE',  ( 0.0000000000000000000, -3.061515884556004775E-16, 1.000000000000000000 ) ) ;
#140 = VECTOR ( 'NONE', #123, 1000.000000000000000 ) ;
#141 = AXIS2_PLACEMENT_3D ( 'NONE', #102, #264, #148 ) ;
#142 = ORIENTED_EDGE ( 'NONE', *, *, #248, .T. ) ;
#143 = ORIENTED_EDGE ( 'NONE', *, *, #167, .F. ) ;
#144 = CONICAL_SURFACE ( 'NONE', #259, 12.69999999999999929, 0.8459069665502284563 ) ;
#145 = CLOSED_SHELL ( 'NONE', ( #132, #295, #157, #126, #89, #272, #154, #33, #62 ) ) ;
#146 = SHAPE_DEFINITION_REPRESENTATION ( #6, #215 ) ;
#147 = APPROVAL ( #11, 'UNSPECIFIED' ) ;
#148 = DIRECTION ( 'NONE',  ( 0.0000000000000000000, -1.000000000000000000, -3.073328992872296367E-16 ) ) ;
#149 = PRODUCT_DEFINITION ( 'UNKNOWN', '', #182, #137 ) ;
#150 = PERSON_AND_ORGANIZATION ( #299, #292 ) ;
#151 = APPROVAL_ROLE ( '' ) ;
#152 = EDGE_CURVE ( 'NONE', #158, #301, #254, .T. ) ;
#153 = EDGE_LOOP ( 'NONE', ( #269, #112, #101, #179 ) ) ;
#154 = ADVANCED_FACE ( 'NONE', ( #42 ), #199, .F. ) ;
#155 = AXIS2_PLACEMENT_3D ( 'NONE', #27, #191, #70 ) ;
#156 = PERSON_AND_ORGANIZATION ( #299, #292 ) ;
#157 = ADVANCED_FACE ( 'NONE', ( #240 ), #194, .F. ) ;
#158 = VERTEX_POINT ( 'NONE', #23 ) ;
#159 = VERTEX_POINT ( 'NONE', #195 ) ;
#160 = DIRECTION ( 'NONE',  ( 0.0000000000000000000, 1.000000000000000000, 3.122502256758250798E-16 ) ) ;
#161 = CALENDAR_DATE ( 2019, 9, 12 ) ;
#162 = CYLINDRICAL_SURFACE ( 'NONE', #10, 12.69999999999999929 ) ;
#163 = EDGE_CURVE ( 'NONE', #60, #158, #284, .T. ) ;
#164 = CARTESIAN_POINT ( 'NONE',  ( 0.0000000000000000000, 2.552100915606772036E-14, 0.6152994820483592697 ) ) ;
#165 = APPROVAL ( #129, 'UNSPECIFIED' ) ;
#166 = DIRECTION ( 'NONE',  ( 0.0000000000000000000, 1.000000000000000000, 3.073328992872296367E-16 ) ) ;
#167 = EDGE_CURVE ( 'NONE', #301, #73, #273, .T. ) ;
#168 = DIRECTION ( 'NONE',  ( 0.0000000000000000000, 1.000000000000000000, 3.073328992872296367E-16 ) ) ;
#169 = CALENDAR_DATE ( 2019, 9, 12 ) ;
#170 = CONICAL_SURFACE ( 'NONE', #274, 12.50000000000000711, 0.7853981633974480570 ) ;
#171 = CARTESIAN_POINT ( 'NONE',  ( 1.555301434917138433E-15, -12.69999999999999929, 1.184700517951654097 ) ) ;
#172 = CARTESIAN_POINT ( 'NONE',  ( 0.0000000000000000000, -12.50000000000000711, -1.384700517951640064 ) ) ;
#173 = ORIENTED_EDGE ( 'NONE', *, *, #87, .T. ) ;
#174 = ORIENTED_EDGE ( 'NONE', *, *, #39, .T. ) ;
#175 = VERTEX_POINT ( 'NONE', #172 ) ;
#176 = ORIENTED_EDGE ( 'NONE', *, *, #100, .F. ) ;
#177 = COORDINATED_UNIVERSAL_TIME_OFFSET ( 5, 0, .BEHIND. ) ;
#178 = LINE ( 'NONE', #183, #268 ) ;
#179 = ORIENTED_EDGE ( 'NONE', *, *, #163, .F. ) ;
#180 = EDGE_CURVE ( 'NONE', #159, #115, #80, .T. ) ;
#181 = LOCAL_TIME ( 15, 56, 14.00000000000000000, #177 ) ;
#182 = PRODUCT_DEFINITION_FORMATION_WITH_SPECIFIED_SOURCE ( 'ANY', '', #277, .NOT_KNOWN. ) ;
#183 = CARTESIAN_POINT ( 'NONE',  ( 0.0000000000000000000, -12.50000000000000711, -1.384700517951640064 ) ) ;
#184 = ORIENTED_EDGE ( 'NONE', *, *, #88, .T. ) ;
#185 = CIRCLE ( 'NONE', #210, 12.50000000000000711 ) ;
#186 = DATE_AND_TIME ( #75, #291 ) ;
#187 = CIRCLE ( 'NONE', #71, 12.50127230455354344 ) ;
#188 = DIRECTION ( 'NONE',  ( 0.0000000000000000000, -1.000000000000000000, -3.122502256758250798E-16 ) ) ;
#189 = APPROVAL_PERSON_ORGANIZATION ( #221, #147, #289 ) ;
#190 =( GEOMETRIC_REPRESENTATION_CONTEXT ( 3 ) GLOBAL_UNCERTAINTY_ASSIGNED_CONTEXT ( ( #133 ) ) GLOBAL_UNIT_ASSIGNED_CONTEXT ( ( #32, #106, #196 ) ) REPRESENTATION_CONTEXT ( 'NONE', 'WORKASPACE' ) );
#191 = DIRECTION ( 'NONE',  ( -0.0000000000000000000, 3.061515884556004775E-16, -1.000000000000000000 ) ) ;
#192 = DIRECTION ( 'NONE',  ( 0.0000000000000000000, 1.000000000000000000, 3.073328992872296367E-16 ) ) ;
#193 = LOCAL_TIME ( 15, 56, 14.00000000000000000, #56 ) ;
#194 = SPHERICAL_SURFACE ( 'NONE', #243, 105.2000000000000171 ) ;
#195 = CARTESIAN_POINT ( 'NONE',  ( 1.530964311304098449E-15, -12.50127230455355054, 1.360724710201233645 ) ) ;
#196 =( NAMED_UNIT ( * ) SI_UNIT ( $, .STERADIAN. ) SOLID_ANGLE_UNIT ( ) );
#197 = ORIENTED_EDGE ( 'NONE', *, *, #5, .T. ) ;
#198 = ORIENTED_EDGE ( 'NONE', *, *, #100, .T. ) ;
#199 = SPHERICAL_SURFACE ( 'NONE', #95, 105.2000000000000171 ) ;
#200 = DIRECTION ( 'NONE',  ( 0.0000000000000000000, -1.000000000000000000, -3.122502256758250798E-16 ) ) ;
#201 = PERSON_AND_ORGANIZATION_ROLE ( 'design_supplier' ) ;
#202 = CC_DESIGN_APPROVAL ( #165, ( #149 ) ) ;
#203 = SECURITY_CLASSIFICATION_LEVEL ( 'unclassified' ) ;
#204 = CARTESIAN_POINT ( 'NONE',  ( 0.0000000000000000000, 1.836909530733571064E-16, -1.384700517951636289 ) ) ;
#205 = CC_DESIGN_PERSON_AND_ORGANIZATION_ASSIGNMENT ( #156, #59, ( #211 ) ) ;
#206 = DIRECTION ( 'NONE',  ( -0.0000000000000000000, 3.061515884555943146E-16, -1.000000000000000000 ) ) ;
#207 = AXIS2_PLACEMENT_3D ( 'NONE', #296, #206, #231 ) ;
#208 = DIRECTION ( 'NONE',  ( -1.000000000000000000, 0.0000000000000000000, 0.0000000000000000000 ) ) ;
#209 = CARTESIAN_POINT ( 'NONE',  ( 0.0000000000000000000, 1.836909530733571311E-16, -1.384700517951636289 ) ) ;
#210 = AXIS2_PLACEMENT_3D ( 'NONE', #204, #91, #160 ) ;
#211 = SECURITY_CLASSIFICATION ( '', '', #203 ) ;
#212 = CARTESIAN_POINT ( 'NONE',  ( 0.0000000000000000000, 1.224606353822407087E-16, -1.184700517951644105 ) ) ;
#213 = CIRCLE ( 'NONE', #239, 12.50127230455354344 ) ;
#214 = CARTESIAN_POINT ( 'NONE',  ( 0.0000000000000000000, -1.312778011297588515E-14, 105.8152994820483741 ) ) ;
#215 = ADVANCED_BREP_SHAPE_REPRESENTATION ( 'TTN099145-E0W', ( #225, #121 ), #190 ) ;
#216 = CARTESIAN_POINT ( 'NONE',  ( 1.555301434917138433E-15, -12.69999999999999929, 1.184700517951654097 ) ) ;
#217 = PRODUCT_RELATED_PRODUCT_CATEGORY ( 'detail', '', ( #277 ) ) ;
#218 = CARTESIAN_POINT ( 'NONE',  ( 0.0000000000000000000, 0.0000000000000000000, 0.0000000000000000000 ) ) ;
#219 = APPLICATION_PROTOCOL_DEFINITION ( 'international standard', 'config_control_design', 1994, #55 ) ;
#220 = MECHANICAL_CONTEXT ( 'NONE', #55, 'mechanical' ) ;
#221 = PERSON_AND_ORGANIZATION ( #299, #292 ) ;
#222 = PERSON_AND_ORGANIZATION_ROLE ( 'creator' ) ;
#223 = APPROVAL_STATUS ( 'not_yet_approved' ) ;
#224 = ORIENTED_EDGE ( 'NONE', *, *, #152, .T. ) ;
#225 = MANIFOLD_SOLID_BREP ( 'TTN099146-1-solid1', #145 ) ;
#226 = APPROVAL_ROLE ( '' ) ;
#227 = APPROVAL ( #223, 'UNSPECIFIED' ) ;
#228 = LOCAL_TIME ( 15, 56, 14.00000000000000000, #3 ) ;
#229 = EDGE_CURVE ( 'NONE', #159, #301, #18, .T. ) ;
#230 = CARTESIAN_POINT ( 'NONE',  ( 0.0000000000000000000, -1.312778011297588515E-14, 105.8152994820483741 ) ) ;
#231 = DIRECTION ( 'NONE',  ( 0.0000000000000000000, 1.000000000000000000, 3.061515884555943146E-16 ) ) ;
#232 = DATE_AND_TIME ( #66, #181 ) ;
#233 = PERSON_AND_ORGANIZATION ( #299, #292 ) ;
#234 = DIRECTION ( 'NONE',  ( 0.0000000000000000000, 1.000000000000000000, 3.073328992872296367E-16 ) ) ;
#235 = DIRECTION ( 'NONE',  ( 0.0000000000000000000, 1.000000000000000000, 3.073328992872296367E-16 ) ) ;
#236 = EDGE_CURVE ( 'NONE', #60, #159, #187, .T. ) ;
#237 = CARTESIAN_POINT ( 'NONE',  ( 0.0000000000000000000, -1.312778011297588515E-14, 105.8152994820483741 ) ) ;
#238 = DATE_AND_TIME ( #281, #193 ) ;
#239 = AXIS2_PLACEMENT_3D ( 'NONE', #67, #139, #114 ) ;
#240 = FACE_OUTER_BOUND ( 'NONE', #245, .T. ) ;
#241 = CARTESIAN_POINT ( 'NONE',  ( 0.0000000000000000000, 1.885115387487940639E-14, 1.360724710201232313 ) ) ;
#242 = CARTESIAN_POINT ( 'NONE',  ( 0.0000000000000000000, -1.312778011297588515E-14, 105.8152994820483741 ) ) ;
#243 = AXIS2_PLACEMENT_3D ( 'NONE', #214, #99, #125 ) ;
#244 = DIRECTION ( 'NONE',  ( 9.167372669502011554E-17, -0.7485727865278944959, -0.6630526248118344679 ) ) ;
#245 = EDGE_LOOP ( 'NONE', ( #258, #250, #257 ) ) ;
#246 = ORIENTED_EDGE ( 'NONE', *, *, #290, .T. ) ;
#247 = DIRECTION ( 'NONE',  ( -1.224646799147353207E-16, 1.000000000000000000, 0.0000000000000000000 ) ) ;
#248 = EDGE_CURVE ( 'NONE', #301, #158, #52, .T. ) ;
#249 = DIRECTION ( 'NONE',  ( -0.0000000000000000000, 3.061515884555943146E-16, -1.000000000000000000 ) ) ;
#250 = ORIENTED_EDGE ( 'NONE', *, *, #180, .T. ) ;
#251 = PERSON_AND_ORGANIZATION_ROLE ( 'creator' ) ;
#252 = PERSON_AND_ORGANIZATION ( #299, #292 ) ;
#253 = FACE_OUTER_BOUND ( 'NONE', #31, .T. ) ;
#254 = CIRCLE ( 'NONE', #155, 12.69999999999999929 ) ;
#255 = AXIS2_PLACEMENT_3D ( 'NONE', #212, #97, #192 ) ;
#256 = PLANE ( 'NONE',  #207 ) ;
#257 = ORIENTED_EDGE ( 'NONE', *, *, #68, .F. ) ;
#258 = ORIENTED_EDGE ( 'NONE', *, *, #236, .T. ) ;
#259 = AXIS2_PLACEMENT_3D ( 'NONE', #21, #276, #234 ) ;
#260 = FACE_OUTER_BOUND ( 'NONE', #116, .T. ) ;
#261 = DIRECTION ( 'NONE',  ( -0.0000000000000000000, 3.061515884555943146E-16, -1.000000000000000000 ) ) ;
#262 = VERTEX_POINT ( 'NONE', #7 ) ;
#263 = ORIENTED_EDGE ( 'NONE', *, *, #248, .F. ) ;
#264 = DIRECTION ( 'NONE',  ( -0.0000000000000000000, 3.061515884556004775E-16, -1.000000000000000000 ) ) ;
#265 = CIRCLE ( 'NONE', #294, 12.50000000000000711 ) ;
#266 = DIRECTION ( 'NONE',  ( 0.0000000000000000000, 0.0000000000000000000, 1.000000000000000000 ) ) ;
#267 = CARTESIAN_POINT ( 'NONE',  ( 0.0000000000000000000, 1.836909530733565148E-16, -1.384700517951634291 ) ) ;
#268 = VECTOR ( 'NONE', #298, 1000.000000000000000 ) ;
#269 = ORIENTED_EDGE ( 'NONE', *, *, #88, .F. ) ;
#270 = AXIS2_PLACEMENT_3D ( 'NONE', #96, #283, #166 ) ;
#271 = ORIENTED_EDGE ( 'NONE', *, *, #163, .T. ) ;
#272 = ADVANCED_FACE ( 'NONE', ( #253 ), #162, .T. ) ;
#273 = LINE ( 'NONE', #286, #90 ) ;
#274 = AXIS2_PLACEMENT_3D ( 'NONE', #78, #82, #200 ) ;
#275 = ORIENTED_EDGE ( 'NONE', *, *, #19, .F. ) ;
#276 = DIRECTION ( 'NONE',  ( -0.0000000000000000000, 3.061515884556004775E-16, -1.000000000000000000 ) ) ;
#277 = PRODUCT ( 'TTN099145-E0W', 'TTN099145-E0W', '', ( #220 ) ) ;
#278 = DIRECTION ( 'NONE',  ( 1.000000000000000000, 0.0000000000000000000, -0.0000000000000000000 ) ) ;
#279 = ORIENTED_EDGE ( 'NONE', *, *, #39, .F. ) ;
#280 = AXIS2_PLACEMENT_3D ( 'NONE', #9, #53, #30 ) ;
#281 = CALENDAR_DATE ( 2019, 9, 12 ) ;
#282 = VECTOR ( 'NONE', #47, 1000.000000000000114 ) ;
#283 = DIRECTION ( 'NONE',  ( -0.0000000000000000000, 3.061515884555943146E-16, -1.000000000000000000 ) ) ;
#284 = LINE ( 'NONE', #34, #37 ) ;
#285 = DIRECTION ( 'NONE',  ( 1.000000000000000000, 1.224646799147353207E-16, 3.749275628560213616E-32 ) ) ;
#286 = CARTESIAN_POINT ( 'NONE',  ( 1.555301434917138433E-15, -12.69999999999999929, -1.384700517951638066 ) ) ;
#287 = PERSON_AND_ORGANIZATION ( #299, #292 ) ;
#288 = CC_DESIGN_PERSON_AND_ORGANIZATION_ASSIGNMENT ( #150, #222, ( #149 ) ) ;
#289 = APPROVAL_ROLE ( '' ) ;
#290 = EDGE_CURVE ( 'NONE', #73, #262, #134, .T. ) ;
#291 = LOCAL_TIME ( 15, 56, 14.00000000000000000, #111 ) ;
#292 = ORGANIZATION ( 'UNSPECIFIED', 'UNSPECIFIED', '' ) ;
#293 = PERSON_AND_ORGANIZATION ( #299, #292 ) ;
#294 = AXIS2_PLACEMENT_3D ( 'NONE', #135, #119, #63 ) ;
#295 = ADVANCED_FACE ( 'NONE', ( #131 ), #170, .T. ) ;
#296 = CARTESIAN_POINT ( 'NONE',  ( 0.0000000000000000000, 1.836909530733571311E-16, -1.384700517951636289 ) ) ;
#297 = EDGE_LOOP ( 'NONE', ( #224, #20, #246, #25 ) ) ;
#298 = DIRECTION ( 'NONE',  ( 0.0000000000000000000, -0.7071067811865475727, 0.7071067811865474617 ) ) ;
#299 = PERSON ( 'UNSPECIFIED', 'UNSPECIFIED', 'UNSPECIFIED', ('UNSPECIFIED'), ('UNSPECIFIED'), ('UNSPECIFIED') ) ;
#300 = AXIS2_PLACEMENT_3D ( 'NONE', #242, #285, #247 ) ;
#301 = VERTEX_POINT ( 'NONE', #171 ) ;
ENDSEC;
END-ISO-10303-21;
