ISO-10303-21;
HEADER;
FILE_DESCRIPTION (( 'STEP AP203' ),
    '1' );
FILE_NAME ('Web Model 45309_45309.step',
    '2019-01-07T15:45:00',
    ( '' ),
    ( '' ),
    'SwSTEP 2.0',
    'SolidWorks 2016',
    '' );
FILE_SCHEMA (( 'CONFIG_CONTROL_DESIGN' ));
ENDSEC;

DATA;
#1 = PERSON_AND_ORGANIZATION ( #133, #48 ) ;
#2 = AXIS2_PLACEMENT_3D ( 'NONE', #104, #98, #132 ) ;
#3 = ORIENTED_EDGE ( 'NONE', *, *, #164, .F. ) ;
#4 = DIRECTION ( 'NONE',  ( 1.000000000000000000, 0.0000000000000000000, -0.0000000000000000000 ) ) ;
#5 = MECHANICAL_CONTEXT ( 'NONE', #9, 'mechanical' ) ;
#6 = AXIS2_PLACEMENT_3D ( 'NONE', #62, #10, #4 ) ;
#7 = CIRCLE ( 'NONE', #134, 6.250000000000000000 ) ;
#8 = ORIENTED_EDGE ( 'NONE', *, *, #41, .T. ) ;
#9 = APPLICATION_CONTEXT ( 'configuration controlled 3d designs of mechanical parts and assemblies' ) ;
#10 = DIRECTION ( 'NONE',  ( 0.0000000000000000000, 0.0000000000000000000, 1.000000000000000000 ) ) ;
#11 = VERTEX_POINT ( 'NONE', #65 ) ;
#12 = ADVANCED_FACE ( 'NONE', ( #64 ), #154, .T. ) ;
#13 = CALENDAR_DATE ( 2019, 7, 1 ) ;
#14 = CARTESIAN_POINT ( 'NONE',  ( 0.0000000000000000000, 0.0000000000000000000, -1.000000000000000000 ) ) ;
#15 = CALENDAR_DATE ( 2019, 7, 1 ) ;
#16 = PLANE ( 'NONE',  #2 ) ;
#17 = CC_DESIGN_PERSON_AND_ORGANIZATION_ASSIGNMENT ( #34, #120, ( #28 ) ) ;
#18 = UNCERTAINTY_MEASURE_WITH_UNIT (LENGTH_MEASURE( 1.000000000000000100E-005 ), #105, 'distance_accuracy_value', 'NONE');
#19 = CARTESIAN_POINT ( 'NONE',  ( 0.0000000000000000000, 0.0000000000000000000, 1.000000000000000000 ) ) ;
#20 = ORIENTED_EDGE ( 'NONE', *, *, #81, .F. ) ;
#21 = CARTESIAN_POINT ( 'NONE',  ( 0.0000000000000000000, 0.0000000000000000000, 0.0000000000000000000 ) ) ;
#22 = SECURITY_CLASSIFICATION_LEVEL ( 'unclassified' ) ;
#23 =( NAMED_UNIT ( * ) SI_UNIT ( $, .STERADIAN. ) SOLID_ANGLE_UNIT ( ) );
#24 = EDGE_LOOP ( 'NONE', ( #3, #129, #125, #92 ) ) ;
#25 = PERSON_AND_ORGANIZATION ( #133, #48 ) ;
#26 =( GEOMETRIC_REPRESENTATION_CONTEXT ( 3 ) GLOBAL_UNCERTAINTY_ASSIGNED_CONTEXT ( ( #18 ) ) GLOBAL_UNIT_ASSIGNED_CONTEXT ( ( #105, #61, #23 ) ) REPRESENTATION_CONTEXT ( 'NONE', 'WORKASPACE' ) );
#27 = FACE_OUTER_BOUND ( 'NONE', #115, .T. ) ;
#28 = PRODUCT_DEFINITION ( 'UNKNOWN', '', #101, #97 ) ;
#29 = LOCAL_TIME ( 10, 45, 0.0000000000000000000, #157 ) ;
#30 = DIRECTION ( 'NONE',  ( 0.0000000000000000000, 0.0000000000000000000, 1.000000000000000000 ) ) ;
#31 = DIRECTION ( 'NONE',  ( -1.000000000000000000, 0.0000000000000000000, 0.0000000000000000000 ) ) ;
#32 = APPROVAL_STATUS ( 'not_yet_approved' ) ;
#33 = PERSON_AND_ORGANIZATION_ROLE ( 'design_supplier' ) ;
#34 = PERSON_AND_ORGANIZATION ( #133, #48 ) ;
#35 = ORIENTED_EDGE ( 'NONE', *, *, #164, .T. ) ;
#36 = APPROVAL_STATUS ( 'not_yet_approved' ) ;
#37 = APPROVAL ( #91, 'UNSPECIFIED' ) ;
#38 = DATE_AND_TIME ( #15, #114 ) ;
#39 = AXIS2_PLACEMENT_3D ( 'NONE', #106, #88, #153 ) ;
#40 = ADVANCED_BREP_SHAPE_REPRESENTATION ( 'Web Model 45309_45309', ( #172, #148 ), #26 ) ;
#41 = EDGE_CURVE ( 'NONE', #44, #142, #49, .T. ) ;
#42 = CALENDAR_DATE ( 2019, 7, 1 ) ;
#43 = VECTOR ( 'NONE', #116, 1000.000000000000000 ) ;
#44 = VERTEX_POINT ( 'NONE', #53 ) ;
#45 = AXIS2_PLACEMENT_3D ( 'NONE', #151, #152, #117 ) ;
#46 = APPROVAL_ROLE ( '' ) ;
#47 = CALENDAR_DATE ( 2019, 7, 1 ) ;
#48 = ORGANIZATION ( 'UNSPECIFIED', 'UNSPECIFIED', '' ) ;
#49 = LINE ( 'NONE', #119, #89 ) ;
#50 = PRODUCT_DEFINITION_SHAPE ( 'NONE', 'NONE',  #28 ) ;
#51 = ORIENTED_EDGE ( 'NONE', *, *, #135, .F. ) ;
#52 = APPROVAL_PERSON_ORGANIZATION ( #162, #146, #128 ) ;
#53 = CARTESIAN_POINT ( 'NONE',  ( -6.250000000000000000, 0.0000000000000000000, 1.000000000000000000 ) ) ;
#54 = CC_DESIGN_PERSON_AND_ORGANIZATION_ASSIGNMENT ( #57, #90, ( #59 ) ) ;
#55 = DIRECTION ( 'NONE',  ( -0.0000000000000000000, -0.0000000000000000000, -1.000000000000000000 ) ) ;
#56 = DIRECTION ( 'NONE',  ( -1.000000000000000000, 0.0000000000000000000, 0.0000000000000000000 ) ) ;
#57 = PERSON_AND_ORGANIZATION ( #133, #48 ) ;
#58 = COORDINATED_UNIVERSAL_TIME_OFFSET ( 5, 0, .BEHIND. ) ;
#59 = SECURITY_CLASSIFICATION ( '', '', #22 ) ;
#60 = APPROVAL_DATE_TIME ( #99, #161 ) ;
#61 =( NAMED_UNIT ( * ) PLANE_ANGLE_UNIT ( ) SI_UNIT ( $, .RADIAN. ) );
#62 = CARTESIAN_POINT ( 'NONE',  ( 0.0000000000000000000, 0.0000000000000000000, 1.000000000000000000 ) ) ;
#63 = CC_DESIGN_APPROVAL ( #37, ( #28 ) ) ;
#64 = FACE_OUTER_BOUND ( 'NONE', #24, .T. ) ;
#65 = CARTESIAN_POINT ( 'NONE',  ( 6.250000000000000000, 7.654042494670957600E-016, -1.000000000000000000 ) ) ;
#66 = COORDINATED_UNIVERSAL_TIME_OFFSET ( 5, 0, .BEHIND. ) ;
#67 = DIRECTION ( 'NONE',  ( -0.0000000000000000000, -0.0000000000000000000, -1.000000000000000000 ) ) ;
#68 = DIRECTION ( 'NONE',  ( 0.0000000000000000000, 0.0000000000000000000, 1.000000000000000000 ) ) ;
#69 = DIRECTION ( 'NONE',  ( 1.000000000000000000, 0.0000000000000000000, 0.0000000000000000000 ) ) ;
#70 = CC_DESIGN_SECURITY_CLASSIFICATION ( #59, ( #101 ) ) ;
#71 = DATE_AND_TIME ( #173, #29 ) ;
#72 = EDGE_LOOP ( 'NONE', ( #51, #109, #8, #138 ) ) ;
#73 = DIRECTION ( 'NONE',  ( 0.0000000000000000000, 0.0000000000000000000, 1.000000000000000000 ) ) ;
#74 = CC_DESIGN_PERSON_AND_ORGANIZATION_ASSIGNMENT ( #25, #171, ( #101 ) ) ;
#75 = DIRECTION ( 'NONE',  ( 1.000000000000000000, 0.0000000000000000000, 0.0000000000000000000 ) ) ;
#76 = APPLICATION_PROTOCOL_DEFINITION ( 'international standard', 'config_control_design', 1994, #9 ) ;
#77 = LOCAL_TIME ( 10, 45, 0.0000000000000000000, #159 ) ;
#78 = PERSON_AND_ORGANIZATION ( #133, #48 ) ;
#79 = ADVANCED_FACE ( 'NONE', ( #163 ), #126, .T. ) ;
#80 = APPROVAL_DATE_TIME ( #38, #37 ) ;
#81 = EDGE_CURVE ( 'NONE', #11, #142, #131, .T. ) ;
#82 = APPROVAL_DATE_TIME ( #95, #146 ) ;
#83 = DIRECTION ( 'NONE',  ( 1.000000000000000000, 0.0000000000000000000, 0.0000000000000000000 ) ) ;
#84 = CC_DESIGN_PERSON_AND_ORGANIZATION_ASSIGNMENT ( #144, #33, ( #101 ) ) ;
#85 = PERSON_AND_ORGANIZATION_ROLE ( 'design_owner' ) ;
#86 = CC_DESIGN_APPROVAL ( #146, ( #59 ) ) ;
#87 = LOCAL_TIME ( 10, 45, 0.0000000000000000000, #58 ) ;
#88 = DIRECTION ( 'NONE',  ( 0.0000000000000000000, 0.0000000000000000000, 1.000000000000000000 ) ) ;
#89 = VECTOR ( 'NONE', #141, 1000.000000000000000 ) ;
#90 = PERSON_AND_ORGANIZATION_ROLE ( 'classification_officer' ) ;
#91 = APPROVAL_STATUS ( 'not_yet_approved' ) ;
#92 = ORIENTED_EDGE ( 'NONE', *, *, #41, .F. ) ;
#93 = CC_DESIGN_DATE_AND_TIME_ASSIGNMENT ( #137, #130, ( #59 ) ) ;
#94 = CC_DESIGN_PERSON_AND_ORGANIZATION_ASSIGNMENT ( #78, #85, ( #112 ) ) ;
#95 = DATE_AND_TIME ( #13, #77 ) ;
#96 = CIRCLE ( 'NONE', #39, 6.250000000000000000 ) ;
#97 = DESIGN_CONTEXT ( 'detailed design', #168, 'design' ) ;
#98 = DIRECTION ( 'NONE',  ( 0.0000000000000000000, 0.0000000000000000000, 1.000000000000000000 ) ) ;
#99 = DATE_AND_TIME ( #42, #167 ) ;
#100 = LINE ( 'NONE', #165, #43 ) ;
#101 = PRODUCT_DEFINITION_FORMATION_WITH_SPECIFIED_SOURCE ( 'ANY', '', #112, .NOT_KNOWN. ) ;
#102 = CARTESIAN_POINT ( 'NONE',  ( 0.0000000000000000000, 0.0000000000000000000, 1.000000000000000000 ) ) ;
#103 = CC_DESIGN_DATE_AND_TIME_ASSIGNMENT ( #71, #169, ( #28 ) ) ;
#104 = CARTESIAN_POINT ( 'NONE',  ( 0.0000000000000000000, 0.0000000000000000000, -1.000000000000000000 ) ) ;
#105 =( LENGTH_UNIT ( ) NAMED_UNIT ( * ) SI_UNIT ( .MILLI., .METRE. ) );
#106 = CARTESIAN_POINT ( 'NONE',  ( 0.0000000000000000000, 0.0000000000000000000, 1.000000000000000000 ) ) ;
#107 = CC_DESIGN_APPROVAL ( #161, ( #101 ) ) ;
#108 = COORDINATED_UNIVERSAL_TIME_OFFSET ( 5, 0, .BEHIND. ) ;
#109 = ORIENTED_EDGE ( 'NONE', *, *, #158, .F. ) ;
#110 = EDGE_CURVE ( 'NONE', #142, #11, #140, .T. ) ;
#111 = APPROVAL_PERSON_ORGANIZATION ( #1, #37, #123 ) ;
#112 = PRODUCT ( 'Web Model 45309_45309', 'Web Model 45309_45309', '', ( #5 ) ) ;
#113 = ADVANCED_FACE ( 'NONE', ( #27 ), #16, .F. ) ;
#114 = LOCAL_TIME ( 10, 45, 0.0000000000000000000, #66 ) ;
#115 = EDGE_LOOP ( 'NONE', ( #118, #20 ) ) ;
#116 = DIRECTION ( 'NONE',  ( -0.0000000000000000000, -0.0000000000000000000, -1.000000000000000000 ) ) ;
#117 = DIRECTION ( 'NONE',  ( 1.000000000000000000, 0.0000000000000000000, 0.0000000000000000000 ) ) ;
#118 = ORIENTED_EDGE ( 'NONE', *, *, #110, .F. ) ;
#119 = CARTESIAN_POINT ( 'NONE',  ( -6.250000000000000000, 0.0000000000000000000, 1.000000000000000000 ) ) ;
#120 = PERSON_AND_ORGANIZATION_ROLE ( 'creator' ) ;
#121 = AXIS2_PLACEMENT_3D ( 'NONE', #102, #67, #56 ) ;
#122 = CARTESIAN_POINT ( 'NONE',  ( -6.250000000000000000, 0.0000000000000000000, -1.000000000000000000 ) ) ;
#123 = APPROVAL_ROLE ( '' ) ;
#124 = APPROVAL_PERSON_ORGANIZATION ( #139, #161, #46 ) ;
#125 = ORIENTED_EDGE ( 'NONE', *, *, #81, .T. ) ;
#126 = CYLINDRICAL_SURFACE ( 'NONE', #174, 6.250000000000000000 ) ;
#127 = AXIS2_PLACEMENT_3D ( 'NONE', #14, #30, #83 ) ;
#128 = APPROVAL_ROLE ( '' ) ;
#129 = ORIENTED_EDGE ( 'NONE', *, *, #135, .T. ) ;
#130 = DATE_TIME_ROLE ( 'classification_date' ) ;
#131 = CIRCLE ( 'NONE', #127, 6.250000000000000000 ) ;
#132 = DIRECTION ( 'NONE',  ( 1.000000000000000000, 0.0000000000000000000, -0.0000000000000000000 ) ) ;
#133 = PERSON ( 'UNSPECIFIED', 'UNSPECIFIED', 'UNSPECIFIED', ('UNSPECIFIED'), ('UNSPECIFIED'), ('UNSPECIFIED') ) ;
#134 = AXIS2_PLACEMENT_3D ( 'NONE', #19, #68, #69 ) ;
#135 = EDGE_CURVE ( 'NONE', #175, #11, #100, .T. ) ;
#136 = ADVANCED_FACE ( 'NONE', ( #145 ), #143, .T. ) ;
#137 = DATE_AND_TIME ( #47, #87 ) ;
#138 = ORIENTED_EDGE ( 'NONE', *, *, #110, .T. ) ;
#139 = PERSON_AND_ORGANIZATION ( #133, #48 ) ;
#140 = CIRCLE ( 'NONE', #45, 6.250000000000000000 ) ;
#141 = DIRECTION ( 'NONE',  ( -0.0000000000000000000, -0.0000000000000000000, -1.000000000000000000 ) ) ;
#142 = VERTEX_POINT ( 'NONE', #122 ) ;
#143 = PLANE ( 'NONE',  #6 ) ;
#144 = PERSON_AND_ORGANIZATION ( #133, #48 ) ;
#145 = FACE_OUTER_BOUND ( 'NONE', #150, .T. ) ;
#146 = APPROVAL ( #32, 'UNSPECIFIED' ) ;
#147 = SHAPE_DEFINITION_REPRESENTATION ( #50, #40 ) ;
#148 = AXIS2_PLACEMENT_3D ( 'NONE', #21, #73, #75 ) ;
#149 = CARTESIAN_POINT ( 'NONE',  ( 0.0000000000000000000, 0.0000000000000000000, 1.000000000000000000 ) ) ;
#150 = EDGE_LOOP ( 'NONE', ( #170, #35 ) ) ;
#151 = CARTESIAN_POINT ( 'NONE',  ( 0.0000000000000000000, 0.0000000000000000000, -1.000000000000000000 ) ) ;
#152 = DIRECTION ( 'NONE',  ( 0.0000000000000000000, 0.0000000000000000000, 1.000000000000000000 ) ) ;
#153 = DIRECTION ( 'NONE',  ( 1.000000000000000000, 0.0000000000000000000, 0.0000000000000000000 ) ) ;
#154 = CYLINDRICAL_SURFACE ( 'NONE', #121, 6.250000000000000000 ) ;
#155 = CARTESIAN_POINT ( 'NONE',  ( 6.250000000000000000, 7.654042494670957600E-016, 1.000000000000000000 ) ) ;
#156 = PRODUCT_RELATED_PRODUCT_CATEGORY ( 'detail', '', ( #112 ) ) ;
#157 = COORDINATED_UNIVERSAL_TIME_OFFSET ( 5, 0, .BEHIND. ) ;
#158 = EDGE_CURVE ( 'NONE', #44, #175, #96, .T. ) ;
#159 = COORDINATED_UNIVERSAL_TIME_OFFSET ( 5, 0, .BEHIND. ) ;
#160 = CLOSED_SHELL ( 'NONE', ( #12, #79, #136, #113 ) ) ;
#161 = APPROVAL ( #36, 'UNSPECIFIED' ) ;
#162 = PERSON_AND_ORGANIZATION ( #133, #48 ) ;
#163 = FACE_OUTER_BOUND ( 'NONE', #72, .T. ) ;
#164 = EDGE_CURVE ( 'NONE', #175, #44, #7, .T. ) ;
#165 = CARTESIAN_POINT ( 'NONE',  ( 6.250000000000000000, 7.654042494670957600E-016, 1.000000000000000000 ) ) ;
#166 = APPLICATION_PROTOCOL_DEFINITION ( 'international standard', 'config_control_design', 1994, #168 ) ;
#167 = LOCAL_TIME ( 10, 45, 0.0000000000000000000, #108 ) ;
#168 = APPLICATION_CONTEXT ( 'configuration controlled 3d designs of mechanical parts and assemblies' ) ;
#169 = DATE_TIME_ROLE ( 'creation_date' ) ;
#170 = ORIENTED_EDGE ( 'NONE', *, *, #158, .T. ) ;
#171 = PERSON_AND_ORGANIZATION_ROLE ( 'creator' ) ;
#172 = MANIFOLD_SOLID_BREP ( 'Boss-Extrude1', #160 ) ;
#173 = CALENDAR_DATE ( 2019, 7, 1 ) ;
#174 = AXIS2_PLACEMENT_3D ( 'NONE', #149, #55, #31 ) ;
#175 = VERTEX_POINT ( 'NONE', #155 ) ;
ENDSEC;
END-ISO-10303-21;
