ISO-10303-21;
HEADER;
FILE_DESCRIPTION (( 'STEP AP203' ),
    '1' );
FILE_NAME ('Web Model 33033_33034.step',
    '2019-05-20T15:06:06',
    ( '' ),
    ( '' ),
    'SwSTEP 2.0',
    'SolidWorks 2018',
    '' );
FILE_SCHEMA (( 'CONFIG_CONTROL_DESIGN' ));
ENDSEC;

DATA;
#1 = CC_DESIGN_PERSON_AND_ORGANIZATION_ASSIGNMENT ( #154, #48, ( #62 ) ) ;
#2 = APPROVAL ( #59, 'UNSPECIFIED' ) ;
#3 = DESIGN_CONTEXT ( 'detailed design', #100, 'design' ) ;
#4 = DATE_AND_TIME ( #49, #75 ) ;
#5 = EDGE_CURVE ( 'NONE', #93, #29, #56, .T. ) ;
#6 = ADVANCED_FACE ( 'NONE', ( #129 ), #13, .T. ) ;
#7 = DIRECTION ( 'NONE',  ( -0.0000000000000000000, -0.0000000000000000000, 1.000000000000000000 ) ) ;
#8 = DIRECTION ( 'NONE',  ( -0.0000000000000000000, -0.0000000000000000000, 1.000000000000000000 ) ) ;
#9 = PERSON_AND_ORGANIZATION ( #120, #167 ) ;
#10 = PLANE ( 'NONE',  #88 ) ;
#11 = CC_DESIGN_SECURITY_CLASSIFICATION ( #106, ( #62 ) ) ;
#12 = DIRECTION ( 'NONE',  ( -0.0000000000000000000, -0.0000000000000000000, 1.000000000000000000 ) ) ;
#13 = CYLINDRICAL_SURFACE ( 'NONE', #131, 12.69999999999999929 ) ;
#14 = APPROVAL_PERSON_ORGANIZATION ( #63, #135, #162 ) ;
#15 = DIRECTION ( 'NONE',  ( -0.0000000000000000000, -0.0000000000000000000, 1.000000000000000000 ) ) ;
#16 = CC_DESIGN_APPROVAL ( #147, ( #62 ) ) ;
#17 = AXIS2_PLACEMENT_3D ( 'NONE', #68, #127, #142 ) ;
#18 = EDGE_LOOP ( 'NONE', ( #60, #57 ) ) ;
#19 = COORDINATED_UNIVERSAL_TIME_OFFSET ( 5, 0, .BEHIND. ) ;
#20 = PRODUCT_RELATED_PRODUCT_CATEGORY ( 'detail', '', ( #118 ) ) ;
#21 = EDGE_LOOP ( 'NONE', ( #36, #170, #166, #133 ) ) ;
#22 = CARTESIAN_POINT ( 'NONE',  ( 0.0000000000000000000, 0.0000000000000000000, -2.499999999999999556 ) ) ;
#23 = DIRECTION ( 'NONE',  ( 1.000000000000000000, 0.0000000000000000000, 0.0000000000000000000 ) ) ;
#24 = PERSON_AND_ORGANIZATION_ROLE ( 'design_owner' ) ;
#25 = MECHANICAL_CONTEXT ( 'NONE', #101, 'mechanical' ) ;
#26 = PRODUCT_DEFINITION_SHAPE ( 'NONE', 'NONE',  #168 ) ;
#27 = AXIS2_PLACEMENT_3D ( 'NONE', #108, #71, #23 ) ;
#28 = DATE_AND_TIME ( #45, #105 ) ;
#29 = VERTEX_POINT ( 'NONE', #159 ) ;
#30 = CALENDAR_DATE ( 2019, 20, 5 ) ;
#31 = CARTESIAN_POINT ( 'NONE',  ( 0.0000000000000000000, 0.0000000000000000000, 2.500000000000000000 ) ) ;
#32 = DIRECTION ( 'NONE',  ( 0.0000000000000000000, 0.0000000000000000000, -1.000000000000000000 ) ) ;
#33 = FACE_OUTER_BOUND ( 'NONE', #115, .T. ) ;
#34 = AXIS2_PLACEMENT_3D ( 'NONE', #31, #15, #35 ) ;
#35 = DIRECTION ( 'NONE',  ( 1.000000000000000000, 0.0000000000000000000, 0.0000000000000000000 ) ) ;
#36 = ORIENTED_EDGE ( 'NONE', *, *, #67, .T. ) ;
#37 = CIRCLE ( 'NONE', #34, 12.69999999999999929 ) ;
#38 = LOCAL_TIME ( 11, 6, 6.000000000000000000, #107 ) ;
#39 = APPROVAL_PERSON_ORGANIZATION ( #96, #147, #148 ) ;
#40 = PERSON_AND_ORGANIZATION ( #120, #167 ) ;
#41 = DIRECTION ( 'NONE',  ( -0.0000000000000000000, -0.0000000000000000000, 1.000000000000000000 ) ) ;
#42 = ADVANCED_FACE ( 'NONE', ( #153 ), #155, .T. ) ;
#43 = CLOSED_SHELL ( 'NONE', ( #6, #138, #70, #42 ) ) ;
#44 = AXIS2_PLACEMENT_3D ( 'NONE', #77, #76, #130 ) ;
#45 = CALENDAR_DATE ( 2019, 20, 5 ) ;
#46 = CARTESIAN_POINT ( 'NONE',  ( 0.0000000000000000000, 0.0000000000000000000, 2.500000000000001332 ) ) ;
#47 = DIRECTION ( 'NONE',  ( -1.000000000000000000, 0.0000000000000000000, -0.0000000000000000000 ) ) ;
#48 = PERSON_AND_ORGANIZATION_ROLE ( 'creator' ) ;
#49 = CALENDAR_DATE ( 2019, 20, 5 ) ;
#50 =( NAMED_UNIT ( * ) SI_UNIT ( $, .STERADIAN. ) SOLID_ANGLE_UNIT ( ) );
#51 = DATE_TIME_ROLE ( 'classification_date' ) ;
#52 =( LENGTH_UNIT ( ) NAMED_UNIT ( * ) SI_UNIT ( .MILLI., .METRE. ) );
#53 = CALENDAR_DATE ( 2019, 20, 5 ) ;
#54 = MANIFOLD_SOLID_BREP ( 'Revolve1', #43 ) ;
#55 = APPROVAL_PERSON_ORGANIZATION ( #9, #2, #86 ) ;
#56 = CIRCLE ( 'NONE', #158, 12.69999999999999929 ) ;
#57 = ORIENTED_EDGE ( 'NONE', *, *, #94, .F. ) ;
#58 =( NAMED_UNIT ( * ) PLANE_ANGLE_UNIT ( ) SI_UNIT ( $, .RADIAN. ) );
#59 = APPROVAL_STATUS ( 'not_yet_approved' ) ;
#60 = ORIENTED_EDGE ( 'NONE', *, *, #67, .F. ) ;
#61 = PERSON_AND_ORGANIZATION_ROLE ( 'creator' ) ;
#62 = PRODUCT_DEFINITION_FORMATION_WITH_SPECIFIED_SOURCE ( 'ANY', '', #118, .NOT_KNOWN. ) ;
#63 = PERSON_AND_ORGANIZATION ( #120, #167 ) ;
#64 = ORIENTED_EDGE ( 'NONE', *, *, #5, .F. ) ;
#65 = COORDINATED_UNIVERSAL_TIME_OFFSET ( 5, 0, .BEHIND. ) ;
#66 = LINE ( 'NONE', #172, #143 ) ;
#67 = EDGE_CURVE ( 'NONE', #121, #91, #84, .T. ) ;
#68 = CARTESIAN_POINT ( 'NONE',  ( 0.0000000000000000000, 0.0000000000000000000, -2.499999999999999556 ) ) ;
#69 = DIRECTION ( 'NONE',  ( 1.000000000000000000, 0.0000000000000000000, 0.0000000000000000000 ) ) ;
#70 = ADVANCED_FACE ( 'NONE', ( #89 ), #83, .F. ) ;
#71 = DIRECTION ( 'NONE',  ( 0.0000000000000000000, -0.0000000000000000000, 1.000000000000000000 ) ) ;
#72 = AXIS2_PLACEMENT_3D ( 'NONE', #22, #111, #112 ) ;
#73 = SHAPE_DEFINITION_REPRESENTATION ( #26, #126 ) ;
#74 = ORIENTED_EDGE ( 'NONE', *, *, #149, .T. ) ;
#75 = LOCAL_TIME ( 11, 6, 6.000000000000000000, #65 ) ;
#76 = DIRECTION ( 'NONE',  ( 0.0000000000000000000, 0.0000000000000000000, 1.000000000000000000 ) ) ;
#77 = CARTESIAN_POINT ( 'NONE',  ( 0.0000000000000000000, 0.0000000000000000000, 0.0000000000000000000 ) ) ;
#78 = LOCAL_TIME ( 11, 6, 6.000000000000000000, #82 ) ;
#79 = APPROVAL_DATE_TIME ( #103, #2 ) ;
#80 = CALENDAR_DATE ( 2019, 20, 5 ) ;
#81 = AXIS2_PLACEMENT_3D ( 'NONE', #46, #12, #173 ) ;
#82 = COORDINATED_UNIVERSAL_TIME_OFFSET ( 5, 0, .BEHIND. ) ;
#83 = PLANE ( 'NONE',  #27 ) ;
#84 = CIRCLE ( 'NONE', #17, 12.69999999999999929 ) ;
#85 = APPROVAL_STATUS ( 'not_yet_approved' ) ;
#86 = APPROVAL_ROLE ( '' ) ;
#87 = APPROVAL_DATE_TIME ( #4, #147 ) ;
#88 = AXIS2_PLACEMENT_3D ( 'NONE', #139, #32, #47 ) ;
#89 = FACE_OUTER_BOUND ( 'NONE', #18, .T. ) ;
#90 = CC_DESIGN_PERSON_AND_ORGANIZATION_ASSIGNMENT ( #110, #146, ( #106 ) ) ;
#91 = VERTEX_POINT ( 'NONE', #109 ) ;
#92 = PERSON_AND_ORGANIZATION ( #120, #167 ) ;
#93 = VERTEX_POINT ( 'NONE', #124 ) ;
#94 = EDGE_CURVE ( 'NONE', #91, #121, #123, .T. ) ;
#95 = ORIENTED_EDGE ( 'NONE', *, *, #5, .T. ) ;
#96 = PERSON_AND_ORGANIZATION ( #120, #167 ) ;
#97 = CARTESIAN_POINT ( 'NONE',  ( 0.0000000000000000000, 0.0000000000000000000, 2.500000000000000000 ) ) ;
#98 =( GEOMETRIC_REPRESENTATION_CONTEXT ( 3 ) GLOBAL_UNCERTAINTY_ASSIGNED_CONTEXT ( ( #165 ) ) GLOBAL_UNIT_ASSIGNED_CONTEXT ( ( #52, #58, #50 ) ) REPRESENTATION_CONTEXT ( 'NONE', 'WORKASPACE' ) );
#99 = DIRECTION ( 'NONE',  ( -0.0000000000000000000, -0.0000000000000000000, 1.000000000000000000 ) ) ;
#100 = APPLICATION_CONTEXT ( 'configuration controlled 3d designs of mechanical parts and assemblies' ) ;
#101 = APPLICATION_CONTEXT ( 'configuration controlled 3d designs of mechanical parts and assemblies' ) ;
#102 = VECTOR ( 'NONE', #99, 1000.000000000000000 ) ;
#103 = DATE_AND_TIME ( #30, #38 ) ;
#104 = CC_DESIGN_APPROVAL ( #2, ( #106 ) ) ;
#105 = LOCAL_TIME ( 11, 6, 6.000000000000000000, #19 ) ;
#106 = SECURITY_CLASSIFICATION ( '', '', #163 ) ;
#107 = COORDINATED_UNIVERSAL_TIME_OFFSET ( 5, 0, .BEHIND. ) ;
#108 = CARTESIAN_POINT ( 'NONE',  ( 0.0000000000000000000, 12.69999999999999929, -2.500000000000000444 ) ) ;
#109 = CARTESIAN_POINT ( 'NONE',  ( -12.69999999999999929, 1.555301434917138433E-15, -2.499999999999999556 ) ) ;
#110 = PERSON_AND_ORGANIZATION ( #120, #167 ) ;
#111 = DIRECTION ( 'NONE',  ( -0.0000000000000000000, -0.0000000000000000000, 1.000000000000000000 ) ) ;
#112 = DIRECTION ( 'NONE',  ( 1.000000000000000000, 0.0000000000000000000, 0.0000000000000000000 ) ) ;
#113 = CC_DESIGN_PERSON_AND_ORGANIZATION_ASSIGNMENT ( #92, #61, ( #168 ) ) ;
#114 = PERSON_AND_ORGANIZATION_ROLE ( 'design_supplier' ) ;
#115 = EDGE_LOOP ( 'NONE', ( #160, #95 ) ) ;
#116 = APPLICATION_PROTOCOL_DEFINITION ( 'international standard', 'config_control_design', 1994, #100 ) ;
#117 = LOCAL_TIME ( 11, 6, 6.000000000000000000, #144 ) ;
#118 = PRODUCT ( 'Web Model 33033_33034', 'Web Model 33033_33034', '', ( #25 ) ) ;
#119 = CC_DESIGN_DATE_AND_TIME_ASSIGNMENT ( #28, #51, ( #106 ) ) ;
#120 = PERSON ( 'UNSPECIFIED', 'UNSPECIFIED', 'UNSPECIFIED', ('UNSPECIFIED'), ('UNSPECIFIED'), ('UNSPECIFIED') ) ;
#121 = VERTEX_POINT ( 'NONE', #145 ) ;
#122 = CC_DESIGN_PERSON_AND_ORGANIZATION_ASSIGNMENT ( #140, #24, ( #118 ) ) ;
#123 = CIRCLE ( 'NONE', #72, 12.69999999999999929 ) ;
#124 = CARTESIAN_POINT ( 'NONE',  ( -12.69999999999999929, 1.555301434917138433E-15, 2.500000000000000000 ) ) ;
#125 = DATE_AND_TIME ( #80, #117 ) ;
#126 = ADVANCED_BREP_SHAPE_REPRESENTATION ( 'Web Model 33033_33034', ( #54, #44 ), #98 ) ;
#127 = DIRECTION ( 'NONE',  ( -0.0000000000000000000, -0.0000000000000000000, 1.000000000000000000 ) ) ;
#128 = CARTESIAN_POINT ( 'NONE',  ( -12.69999999999999929, 1.555301434917138433E-15, 2.500000000000001332 ) ) ;
#129 = FACE_OUTER_BOUND ( 'NONE', #21, .T. ) ;
#130 = DIRECTION ( 'NONE',  ( 1.000000000000000000, 0.0000000000000000000, 0.0000000000000000000 ) ) ;
#131 = AXIS2_PLACEMENT_3D ( 'NONE', #161, #8, #171 ) ;
#132 = APPROVAL_STATUS ( 'not_yet_approved' ) ;
#133 = ORIENTED_EDGE ( 'NONE', *, *, #149, .F. ) ;
#134 = EDGE_CURVE ( 'NONE', #91, #93, #137, .T. ) ;
#135 = APPROVAL ( #85, 'UNSPECIFIED' ) ;
#136 = CC_DESIGN_APPROVAL ( #135, ( #168 ) ) ;
#137 = LINE ( 'NONE', #128, #102 ) ;
#138 = ADVANCED_FACE ( 'NONE', ( #33 ), #10, .F. ) ;
#139 = CARTESIAN_POINT ( 'NONE',  ( 0.0000000000000000000, 12.69999999999999929, 2.500000000000000444 ) ) ;
#140 = PERSON_AND_ORGANIZATION ( #120, #167 ) ;
#141 = EDGE_CURVE ( 'NONE', #29, #93, #37, .T. ) ;
#142 = DIRECTION ( 'NONE',  ( 1.000000000000000000, 0.0000000000000000000, 0.0000000000000000000 ) ) ;
#143 = VECTOR ( 'NONE', #41, 1000.000000000000000 ) ;
#144 = COORDINATED_UNIVERSAL_TIME_OFFSET ( 5, 0, .BEHIND. ) ;
#145 = CARTESIAN_POINT ( 'NONE',  ( 12.69999999999999929, 0.0000000000000000000, -2.499999999999999556 ) ) ;
#146 = PERSON_AND_ORGANIZATION_ROLE ( 'classification_officer' ) ;
#147 = APPROVAL ( #132, 'UNSPECIFIED' ) ;
#148 = APPROVAL_ROLE ( '' ) ;
#149 = EDGE_CURVE ( 'NONE', #121, #29, #66, .T. ) ;
#150 = APPROVAL_DATE_TIME ( #125, #135 ) ;
#151 = APPLICATION_PROTOCOL_DEFINITION ( 'international standard', 'config_control_design', 1994, #101 ) ;
#152 = CC_DESIGN_DATE_AND_TIME_ASSIGNMENT ( #156, #175, ( #168 ) ) ;
#153 = FACE_OUTER_BOUND ( 'NONE', #174, .T. ) ;
#154 = PERSON_AND_ORGANIZATION ( #120, #167 ) ;
#155 = CYLINDRICAL_SURFACE ( 'NONE', #81, 12.69999999999999929 ) ;
#156 = DATE_AND_TIME ( #53, #78 ) ;
#157 = CC_DESIGN_PERSON_AND_ORGANIZATION_ASSIGNMENT ( #40, #114, ( #62 ) ) ;
#158 = AXIS2_PLACEMENT_3D ( 'NONE', #97, #7, #69 ) ;
#159 = CARTESIAN_POINT ( 'NONE',  ( 12.69999999999999929, 0.0000000000000000000, 2.500000000000000000 ) ) ;
#160 = ORIENTED_EDGE ( 'NONE', *, *, #141, .T. ) ;
#161 = CARTESIAN_POINT ( 'NONE',  ( 0.0000000000000000000, 0.0000000000000000000, 2.500000000000001332 ) ) ;
#162 = APPROVAL_ROLE ( '' ) ;
#163 = SECURITY_CLASSIFICATION_LEVEL ( 'unclassified' ) ;
#164 = ORIENTED_EDGE ( 'NONE', *, *, #134, .F. ) ;
#165 = UNCERTAINTY_MEASURE_WITH_UNIT (LENGTH_MEASURE( 1.000000000000000082E-05 ), #52, 'distance_accuracy_value', 'NONE');
#166 = ORIENTED_EDGE ( 'NONE', *, *, #141, .F. ) ;
#167 = ORGANIZATION ( 'UNSPECIFIED', 'UNSPECIFIED', '' ) ;
#168 = PRODUCT_DEFINITION ( 'UNKNOWN', '', #62, #3 ) ;
#169 = ORIENTED_EDGE ( 'NONE', *, *, #94, .T. ) ;
#170 = ORIENTED_EDGE ( 'NONE', *, *, #134, .T. ) ;
#171 = DIRECTION ( 'NONE',  ( 1.000000000000000000, 0.0000000000000000000, 0.0000000000000000000 ) ) ;
#172 = CARTESIAN_POINT ( 'NONE',  ( 12.69999999999999929, 0.0000000000000000000, 2.500000000000001332 ) ) ;
#173 = DIRECTION ( 'NONE',  ( 1.000000000000000000, 0.0000000000000000000, 0.0000000000000000000 ) ) ;
#174 = EDGE_LOOP ( 'NONE', ( #164, #169, #74, #64 ) ) ;
#175 = DATE_TIME_ROLE ( 'creation_date' ) ;
ENDSEC;
END-ISO-10303-21;
