ISO-10303-21;
HEADER;
FILE_DESCRIPTION (( 'STEP AP203' ),
    '1' );
FILE_NAME ('Web Model 68497.STEP',
    '2017-01-31T20:06:38',
    ( '' ),
    ( '' ),
    'SwSTEP 2.0',
    'SolidWorks 2016',
    '' );
FILE_SCHEMA (( 'CONFIG_CONTROL_DESIGN' ));
ENDSEC;

DATA;
#1 =( NAMED_UNIT ( * ) SI_UNIT ( $, .STERADIAN. ) SOLID_ANGLE_UNIT ( ) );
#2 = CALENDAR_DATE ( 2017, 31, 1 ) ;
#3 = ORIENTED_EDGE ( 'NONE', *, *, #45, .F. ) ;
#4 =( NAMED_UNIT ( * ) PLANE_ANGLE_UNIT ( ) SI_UNIT ( $, .RADIAN. ) );
#5 = CC_DESIGN_APPROVAL ( #64, ( #14 ) ) ;
#6 = DIRECTION ( 'NONE',  ( -0.0000000000000000000, -0.0000000000000000000, -1.000000000000000000 ) ) ;
#7 = DATE_TIME_ROLE ( 'classification_date' ) ;
#8 = PERSON_AND_ORGANIZATION_ROLE ( 'design_owner' ) ;
#9 = COORDINATED_UNIVERSAL_TIME_OFFSET ( 5, 0, .BEHIND. ) ;
#10 = ORIENTED_EDGE ( 'NONE', *, *, #147, .F. ) ;
#11 = PERSON_AND_ORGANIZATION_ROLE ( 'design_supplier' ) ;
#12 = CYLINDRICAL_SURFACE ( 'NONE', #59, 37.50000000000000700 ) ;
#13 = EDGE_LOOP ( 'NONE', ( #3, #53 ) ) ;
#14 = PRODUCT_DEFINITION_FORMATION_WITH_SPECIFIED_SOURCE ( 'ANY', '', #133, .NOT_KNOWN. ) ;
#15 = LOCAL_TIME ( 15, 6, 38.00000000000000000, #96 ) ;
#16 = CC_DESIGN_APPROVAL ( #172, ( #106 ) ) ;
#17 = LOCAL_TIME ( 15, 6, 38.00000000000000000, #9 ) ;
#18 = ORIENTED_EDGE ( 'NONE', *, *, #45, .T. ) ;
#19 = AXIS2_PLACEMENT_3D ( 'NONE', #82, #168, #25 ) ;
#20 = CARTESIAN_POINT ( 'NONE',  ( -37.50000000000000700, 0.0000000000000000000, 0.0000000000000000000 ) ) ;
#21 = CARTESIAN_POINT ( 'NONE',  ( 0.0000000000000000000, 0.0000000000000000000, 6.000000000000000000 ) ) ;
#22 = PERSON_AND_ORGANIZATION ( #160, #66 ) ;
#23 = DIRECTION ( 'NONE',  ( 1.000000000000000000, 0.0000000000000000000, -0.0000000000000000000 ) ) ;
#24 = APPROVAL_ROLE ( '' ) ;
#25 = DIRECTION ( 'NONE',  ( 1.000000000000000000, 0.0000000000000000000, 0.0000000000000000000 ) ) ;
#26 = CIRCLE ( 'NONE', #90, 37.50000000000000700 ) ;
#27 = APPROVAL ( #121, 'UNSPECIFIED' ) ;
#28 = APPROVAL_DATE_TIME ( #173, #64 ) ;
#29 = PRODUCT_DEFINITION ( 'UNKNOWN', '', #14, #75 ) ;
#30 = CIRCLE ( 'NONE', #130, 37.50000000000000700 ) ;
#31 = VECTOR ( 'NONE', #137, 1000.000000000000000 ) ;
#32 = DIRECTION ( 'NONE',  ( 1.000000000000000000, 0.0000000000000000000, 0.0000000000000000000 ) ) ;
#33 = DIRECTION ( 'NONE',  ( 1.000000000000000000, 0.0000000000000000000, 0.0000000000000000000 ) ) ;
#34 = CIRCLE ( 'NONE', #138, 37.50000000000000700 ) ;
#35 = AXIS2_PLACEMENT_3D ( 'NONE', #119, #131, #23 ) ;
#36 = PERSON_AND_ORGANIZATION_ROLE ( 'creator' ) ;
#37 = DATE_AND_TIME ( #142, #17 ) ;
#38 = ORIENTED_EDGE ( 'NONE', *, *, #81, .F. ) ;
#39 = APPROVAL_STATUS ( 'not_yet_approved' ) ;
#40 = APPROVAL_DATE_TIME ( #79, #172 ) ;
#41 = CIRCLE ( 'NONE', #153, 37.50000000000000700 ) ;
#42 = CC_DESIGN_DATE_AND_TIME_ASSIGNMENT ( #37, #111, ( #29 ) ) ;
#43 = ADVANCED_FACE ( 'NONE', ( #108 ), #80, .T. ) ;
#44 = APPROVAL_DATE_TIME ( #175, #27 ) ;
#45 = EDGE_CURVE ( 'NONE', #136, #56, #34, .T. ) ;
#46 = LOCAL_TIME ( 15, 6, 38.00000000000000000, #174 ) ;
#47 = EDGE_LOOP ( 'NONE', ( #104, #150 ) ) ;
#48 = EDGE_CURVE ( 'NONE', #56, #136, #41, .T. ) ;
#49 = LOCAL_TIME ( 15, 6, 38.00000000000000000, #125 ) ;
#50 = CLOSED_SHELL ( 'NONE', ( #87, #144, #43, #100 ) ) ;
#51 = CC_DESIGN_PERSON_AND_ORGANIZATION_ASSIGNMENT ( #61, #141, ( #14 ) ) ;
#52 = DIRECTION ( 'NONE',  ( 0.0000000000000000000, 0.0000000000000000000, 1.000000000000000000 ) ) ;
#53 = ORIENTED_EDGE ( 'NONE', *, *, #48, .F. ) ;
#54 =( LENGTH_UNIT ( ) NAMED_UNIT ( * ) SI_UNIT ( .MILLI., .METRE. ) );
#55 = CC_DESIGN_PERSON_AND_ORGANIZATION_ASSIGNMENT ( #123, #11, ( #14 ) ) ;
#56 = VERTEX_POINT ( 'NONE', #68 ) ;
#57 = APPLICATION_PROTOCOL_DEFINITION ( 'international standard', 'config_control_design', 1994, #83 ) ;
#58 = CC_DESIGN_PERSON_AND_ORGANIZATION_ASSIGNMENT ( #99, #36, ( #29 ) ) ;
#59 = AXIS2_PLACEMENT_3D ( 'NONE', #129, #6, #165 ) ;
#60 = CC_DESIGN_PERSON_AND_ORGANIZATION_ASSIGNMENT ( #92, #109, ( #106 ) ) ;
#61 = PERSON_AND_ORGANIZATION ( #160, #66 ) ;
#62 = MANIFOLD_SOLID_BREP ( 'Extrude1', #50 ) ;
#63 = LOCAL_TIME ( 15, 6, 38.00000000000000000, #158 ) ;
#64 = APPROVAL ( #39, 'UNSPECIFIED' ) ;
#65 = DIRECTION ( 'NONE',  ( 0.0000000000000000000, 0.0000000000000000000, 1.000000000000000000 ) ) ;
#66 = ORGANIZATION ( 'UNSPECIFIED', 'UNSPECIFIED', '' ) ;
#67 = CARTESIAN_POINT ( 'NONE',  ( -37.50000000000000700, 0.0000000000000000000, 6.000000000000000000 ) ) ;
#68 = CARTESIAN_POINT ( 'NONE',  ( 37.50000000000000700, 4.592425496802575200E-015, 0.0000000000000000000 ) ) ;
#69 = CC_DESIGN_DATE_AND_TIME_ASSIGNMENT ( #88, #7, ( #106 ) ) ;
#70 = MECHANICAL_CONTEXT ( 'NONE', #83, 'mechanical' ) ;
#71 = CALENDAR_DATE ( 2017, 31, 1 ) ;
#72 = VERTEX_POINT ( 'NONE', #67 ) ;
#73 = SECURITY_CLASSIFICATION_LEVEL ( 'unclassified' ) ;
#74 = PRODUCT_RELATED_PRODUCT_CATEGORY ( 'detail', '', ( #133 ) ) ;
#75 = DESIGN_CONTEXT ( 'detailed design', #132, 'design' ) ;
#76 = LINE ( 'NONE', #127, #31 ) ;
#77 = SHAPE_DEFINITION_REPRESENTATION ( #89, #115 ) ;
#78 = CC_DESIGN_SECURITY_CLASSIFICATION ( #106, ( #14 ) ) ;
#79 = DATE_AND_TIME ( #2, #46 ) ;
#80 = PLANE ( 'NONE',  #35 ) ;
#81 = EDGE_CURVE ( 'NONE', #72, #136, #76, .T. ) ;
#82 = CARTESIAN_POINT ( 'NONE',  ( 0.0000000000000000000, 0.0000000000000000000, 0.0000000000000000000 ) ) ;
#83 = APPLICATION_CONTEXT ( 'configuration controlled 3d designs of mechanical parts and assemblies' ) ;
#84 = APPROVAL_PERSON_ORGANIZATION ( #103, #27, #157 ) ;
#85 = EDGE_LOOP ( 'NONE', ( #124, #169, #145, #18 ) ) ;
#86 = APPROVAL_PERSON_ORGANIZATION ( #22, #172, #143 ) ;
#87 = ADVANCED_FACE ( 'NONE', ( #114 ), #12, .T. ) ;
#88 = DATE_AND_TIME ( #148, #15 ) ;
#89 = PRODUCT_DEFINITION_SHAPE ( 'NONE', 'NONE',  #29 ) ;
#90 = AXIS2_PLACEMENT_3D ( 'NONE', #105, #65, #151 ) ;
#91 = CYLINDRICAL_SURFACE ( 'NONE', #166, 37.50000000000000700 ) ;
#92 = PERSON_AND_ORGANIZATION ( #160, #66 ) ;
#93 = VERTEX_POINT ( 'NONE', #94 ) ;
#94 = CARTESIAN_POINT ( 'NONE',  ( 37.50000000000000700, 4.592425496802575200E-015, 6.000000000000000000 ) ) ;
#95 = CARTESIAN_POINT ( 'NONE',  ( 0.0000000000000000000, 0.0000000000000000000, 6.000000000000000000 ) ) ;
#96 = COORDINATED_UNIVERSAL_TIME_OFFSET ( 5, 0, .BEHIND. ) ;
#97 = CARTESIAN_POINT ( 'NONE',  ( 0.0000000000000000000, 0.0000000000000000000, 0.0000000000000000000 ) ) ;
#98 = UNCERTAINTY_MEASURE_WITH_UNIT (LENGTH_MEASURE( 1.000000000000000100E-005 ), #54, 'distance_accuracy_value', 'NONE');
#99 = PERSON_AND_ORGANIZATION ( #160, #66 ) ;
#100 = ADVANCED_FACE ( 'NONE', ( #154 ), #167, .F. ) ;
#101 = APPROVAL_PERSON_ORGANIZATION ( #112, #64, #24 ) ;
#102 =( GEOMETRIC_REPRESENTATION_CONTEXT ( 3 ) GLOBAL_UNCERTAINTY_ASSIGNED_CONTEXT ( ( #98 ) ) GLOBAL_UNIT_ASSIGNED_CONTEXT ( ( #54, #4, #1 ) ) REPRESENTATION_CONTEXT ( 'NONE', 'WORKASPACE' ) );
#103 = PERSON_AND_ORGANIZATION ( #160, #66 ) ;
#104 = ORIENTED_EDGE ( 'NONE', *, *, #159, .T. ) ;
#105 = CARTESIAN_POINT ( 'NONE',  ( 0.0000000000000000000, 0.0000000000000000000, 6.000000000000000000 ) ) ;
#106 = SECURITY_CLASSIFICATION ( '', '', #73 ) ;
#107 = CARTESIAN_POINT ( 'NONE',  ( 0.0000000000000000000, 0.0000000000000000000, 0.0000000000000000000 ) ) ;
#108 = FACE_OUTER_BOUND ( 'NONE', #47, .T. ) ;
#109 = PERSON_AND_ORGANIZATION_ROLE ( 'classification_officer' ) ;
#110 = APPROVAL_STATUS ( 'not_yet_approved' ) ;
#111 = DATE_TIME_ROLE ( 'creation_date' ) ;
#112 = PERSON_AND_ORGANIZATION ( #160, #66 ) ;
#113 = ORIENTED_EDGE ( 'NONE', *, *, #161, .T. ) ;
#114 = FACE_OUTER_BOUND ( 'NONE', #126, .T. ) ;
#115 = ADVANCED_BREP_SHAPE_REPRESENTATION ( 'Web Model 68497', ( #62, #19 ), #102 ) ;
#116 = CARTESIAN_POINT ( 'NONE',  ( 37.50000000000000700, 4.592425496802575200E-015, 6.000000000000000000 ) ) ;
#117 = DIRECTION ( 'NONE',  ( 1.000000000000000000, 0.0000000000000000000, -0.0000000000000000000 ) ) ;
#118 = CARTESIAN_POINT ( 'NONE',  ( 0.0000000000000000000, 0.0000000000000000000, 0.0000000000000000000 ) ) ;
#119 = CARTESIAN_POINT ( 'NONE',  ( 0.0000000000000000000, 0.0000000000000000000, 6.000000000000000000 ) ) ;
#120 = LINE ( 'NONE', #116, #146 ) ;
#121 = APPROVAL_STATUS ( 'not_yet_approved' ) ;
#122 = FACE_OUTER_BOUND ( 'NONE', #85, .T. ) ;
#123 = PERSON_AND_ORGANIZATION ( #160, #66 ) ;
#124 = ORIENTED_EDGE ( 'NONE', *, *, #161, .F. ) ;
#125 = COORDINATED_UNIVERSAL_TIME_OFFSET ( 5, 0, .BEHIND. ) ;
#126 = EDGE_LOOP ( 'NONE', ( #10, #113, #156, #38 ) ) ;
#127 = CARTESIAN_POINT ( 'NONE',  ( -37.50000000000000700, 0.0000000000000000000, 6.000000000000000000 ) ) ;
#128 = DIRECTION ( 'NONE',  ( 0.0000000000000000000, 0.0000000000000000000, 1.000000000000000000 ) ) ;
#129 = CARTESIAN_POINT ( 'NONE',  ( 0.0000000000000000000, 0.0000000000000000000, 6.000000000000000000 ) ) ;
#130 = AXIS2_PLACEMENT_3D ( 'NONE', #95, #155, #32 ) ;
#131 = DIRECTION ( 'NONE',  ( 0.0000000000000000000, 0.0000000000000000000, 1.000000000000000000 ) ) ;
#132 = APPLICATION_CONTEXT ( 'configuration controlled 3d designs of mechanical parts and assemblies' ) ;
#133 = PRODUCT ( 'Web Model 68497', 'Web Model 68497', '', ( #70 ) ) ;
#134 = AXIS2_PLACEMENT_3D ( 'NONE', #107, #128, #117 ) ;
#135 = CC_DESIGN_APPROVAL ( #27, ( #29 ) ) ;
#136 = VERTEX_POINT ( 'NONE', #20 ) ;
#137 = DIRECTION ( 'NONE',  ( -0.0000000000000000000, -0.0000000000000000000, -1.000000000000000000 ) ) ;
#138 = AXIS2_PLACEMENT_3D ( 'NONE', #118, #52, #33 ) ;
#139 = DIRECTION ( 'NONE',  ( -0.0000000000000000000, -0.0000000000000000000, -1.000000000000000000 ) ) ;
#140 = DIRECTION ( 'NONE',  ( 0.0000000000000000000, 0.0000000000000000000, 1.000000000000000000 ) ) ;
#141 = PERSON_AND_ORGANIZATION_ROLE ( 'creator' ) ;
#142 = CALENDAR_DATE ( 2017, 31, 1 ) ;
#143 = APPROVAL_ROLE ( '' ) ;
#144 = ADVANCED_FACE ( 'NONE', ( #122 ), #91, .T. ) ;
#145 = ORIENTED_EDGE ( 'NONE', *, *, #81, .T. ) ;
#146 = VECTOR ( 'NONE', #152, 1000.000000000000000 ) ;
#147 = EDGE_CURVE ( 'NONE', #93, #72, #26, .T. ) ;
#148 = CALENDAR_DATE ( 2017, 31, 1 ) ;
#149 = DIRECTION ( 'NONE',  ( 1.000000000000000000, 0.0000000000000000000, 0.0000000000000000000 ) ) ;
#150 = ORIENTED_EDGE ( 'NONE', *, *, #147, .T. ) ;
#151 = DIRECTION ( 'NONE',  ( 1.000000000000000000, 0.0000000000000000000, 0.0000000000000000000 ) ) ;
#152 = DIRECTION ( 'NONE',  ( -0.0000000000000000000, -0.0000000000000000000, -1.000000000000000000 ) ) ;
#153 = AXIS2_PLACEMENT_3D ( 'NONE', #97, #140, #149 ) ;
#154 = FACE_OUTER_BOUND ( 'NONE', #13, .T. ) ;
#155 = DIRECTION ( 'NONE',  ( 0.0000000000000000000, 0.0000000000000000000, 1.000000000000000000 ) ) ;
#156 = ORIENTED_EDGE ( 'NONE', *, *, #48, .T. ) ;
#157 = APPROVAL_ROLE ( '' ) ;
#158 = COORDINATED_UNIVERSAL_TIME_OFFSET ( 5, 0, .BEHIND. ) ;
#159 = EDGE_CURVE ( 'NONE', #72, #93, #30, .T. ) ;
#160 = PERSON ( 'UNSPECIFIED', 'UNSPECIFIED', 'UNSPECIFIED', ('UNSPECIFIED'), ('UNSPECIFIED'), ('UNSPECIFIED') ) ;
#161 = EDGE_CURVE ( 'NONE', #93, #56, #120, .T. ) ;
#162 = CALENDAR_DATE ( 2017, 31, 1 ) ;
#163 = PERSON_AND_ORGANIZATION ( #160, #66 ) ;
#164 = DIRECTION ( 'NONE',  ( -1.000000000000000000, 0.0000000000000000000, 0.0000000000000000000 ) ) ;
#165 = DIRECTION ( 'NONE',  ( -1.000000000000000000, 0.0000000000000000000, 0.0000000000000000000 ) ) ;
#166 = AXIS2_PLACEMENT_3D ( 'NONE', #21, #139, #164 ) ;
#167 = PLANE ( 'NONE',  #134 ) ;
#168 = DIRECTION ( 'NONE',  ( 0.0000000000000000000, 0.0000000000000000000, 1.000000000000000000 ) ) ;
#169 = ORIENTED_EDGE ( 'NONE', *, *, #159, .F. ) ;
#170 = CC_DESIGN_PERSON_AND_ORGANIZATION_ASSIGNMENT ( #163, #8, ( #133 ) ) ;
#171 = APPLICATION_PROTOCOL_DEFINITION ( 'international standard', 'config_control_design', 1994, #132 ) ;
#172 = APPROVAL ( #110, 'UNSPECIFIED' ) ;
#173 = DATE_AND_TIME ( #71, #63 ) ;
#174 = COORDINATED_UNIVERSAL_TIME_OFFSET ( 5, 0, .BEHIND. ) ;
#175 = DATE_AND_TIME ( #162, #49 ) ;
ENDSEC;
END-ISO-10303-21;
