ISO-10303-21;
HEADER;
FILE_DESCRIPTION (( 'STEP AP203' ),
    '1' );
FILE_NAME ('Web Model 68735_83347.step',
    '2017-03-06T18:39:13',
    ( '' ),
    ( '' ),
    'SwSTEP 2.0',
    'SolidWorks 2016',
    '' );
FILE_SCHEMA (( 'CONFIG_CONTROL_DESIGN' ));
ENDSEC;

DATA;
#1 = FACE_OUTER_BOUND ( 'NONE', #17, .T. ) ;
#2 = CC_DESIGN_SECURITY_CLASSIFICATION ( #46, ( #87 ) ) ;
#3 = PERSON_AND_ORGANIZATION ( #122, #95 ) ;
#4 = APPROVAL_PERSON_ORGANIZATION ( #16, #109, #98 ) ;
#5 = LINE ( 'NONE', #62, #97 ) ;
#6 = DATE_TIME_ROLE ( 'creation_date' ) ;
#7 = ADVANCED_FACE ( 'NONE', ( #1 ), #52, .F. ) ;
#8 = CARTESIAN_POINT ( 'NONE',  ( 1.000000000000000000, 0.0000000000000000000, 0.0000000000000000000 ) ) ;
#9 = PRODUCT ( 'Web Model 68735_83347', 'Web Model 68735_83347', '', ( #15 ) ) ;
#10 = DIRECTION ( 'NONE',  ( 0.0000000000000000000, 0.0000000000000000000, -1.000000000000000000 ) ) ;
#11 = ORIENTED_EDGE ( 'NONE', *, *, #147, .F. ) ;
#12 = PERSON_AND_ORGANIZATION_ROLE ( 'design_owner' ) ;
#13 = CC_DESIGN_APPROVAL ( #20, ( #46 ) ) ;
#14 = APPROVAL_DATE_TIME ( #61, #103 ) ;
#15 = MECHANICAL_CONTEXT ( 'NONE', #92, 'mechanical' ) ;
#16 = PERSON_AND_ORGANIZATION ( #122, #95 ) ;
#17 = EDGE_LOOP ( 'NONE', ( #100, #114 ) ) ;
#18 = ORIENTED_EDGE ( 'NONE', *, *, #133, .T. ) ;
#19 = DIRECTION ( 'NONE',  ( 0.0000000000000000000, 0.0000000000000000000, 1.000000000000000000 ) ) ;
#20 = APPROVAL ( #140, 'UNSPECIFIED' ) ;
#21 = PLANE ( 'NONE',  #118 ) ;
#22 = COORDINATED_UNIVERSAL_TIME_OFFSET ( 5, 0, .BEHIND. ) ;
#23 = LOCAL_TIME ( 13, 39, 13.00000000000000000, #152 ) ;
#24 = EDGE_CURVE ( 'NONE', #125, #25, #93, .T. ) ;
#25 = VERTEX_POINT ( 'NONE', #88 ) ;
#26 = DIRECTION ( 'NONE',  ( 1.000000000000000000, 0.0000000000000000000, 0.0000000000000000000 ) ) ;
#27 = ADVANCED_FACE ( 'NONE', ( #117 ), #21, .T. ) ;
#28 = ORIENTED_EDGE ( 'NONE', *, *, #157, .T. ) ;
#29 = CC_DESIGN_DATE_AND_TIME_ASSIGNMENT ( #83, #104, ( #46 ) ) ;
#30 = DATE_AND_TIME ( #135, #169 ) ;
#31 = AXIS2_PLACEMENT_3D ( 'NONE', #69, #166, #89 ) ;
#32 = PRODUCT_DEFINITION_SHAPE ( 'NONE', 'NONE',  #79 ) ;
#33 = APPLICATION_CONTEXT ( 'configuration controlled 3d designs of mechanical parts and assemblies' ) ;
#34 = PERSON_AND_ORGANIZATION_ROLE ( 'creator' ) ;
#35 = DATE_AND_TIME ( #173, #64 ) ;
#36 = DIRECTION ( 'NONE',  ( 0.0000000000000000000, 0.0000000000000000000, -1.000000000000000000 ) ) ;
#37 = DIRECTION ( 'NONE',  ( -1.000000000000000000, -0.0000000000000000000, -0.0000000000000000000 ) ) ;
#38 = LOCAL_TIME ( 13, 39, 13.00000000000000000, #115 ) ;
#39 = FACE_OUTER_BOUND ( 'NONE', #146, .T. ) ;
#40 = CC_DESIGN_PERSON_AND_ORGANIZATION_ASSIGNMENT ( #3, #50, ( #46 ) ) ;
#41 = VECTOR ( 'NONE', #82, 1000.000000000000000 ) ;
#42 = ORIENTED_EDGE ( 'NONE', *, *, #147, .T. ) ;
#43 = AXIS2_PLACEMENT_3D ( 'NONE', #111, #26, #10 ) ;
#44 = ADVANCED_FACE ( 'NONE', ( #71 ), #145, .T. ) ;
#45 = CARTESIAN_POINT ( 'NONE',  ( 0.0000000000000000000, 7.654042494670957600E-016, -6.250000000000000000 ) ) ;
#46 = SECURITY_CLASSIFICATION ( '', '', #120 ) ;
#47 = LOCAL_TIME ( 13, 39, 13.00000000000000000, #22 ) ;
#48 = CARTESIAN_POINT ( 'NONE',  ( 1.000000000000000000, 0.0000000000000000000, 0.0000000000000000000 ) ) ;
#49 = PERSON_AND_ORGANIZATION ( #122, #95 ) ;
#50 = PERSON_AND_ORGANIZATION_ROLE ( 'classification_officer' ) ;
#51 = PERSON_AND_ORGANIZATION ( #122, #95 ) ;
#52 = PLANE ( 'NONE',  #43 ) ;
#53 = APPROVAL_DATE_TIME ( #35, #20 ) ;
#54 = ORIENTED_EDGE ( 'NONE', *, *, #123, .F. ) ;
#55 = AXIS2_PLACEMENT_3D ( 'NONE', #75, #37, #124 ) ;
#56 = ORIENTED_EDGE ( 'NONE', *, *, #165, .T. ) ;
#57 = CC_DESIGN_PERSON_AND_ORGANIZATION_ASSIGNMENT ( #51, #60, ( #87 ) ) ;
#58 = DIRECTION ( 'NONE',  ( 1.000000000000000000, 0.0000000000000000000, 0.0000000000000000000 ) ) ;
#59 = APPLICATION_PROTOCOL_DEFINITION ( 'international standard', 'config_control_design', 1994, #33 ) ;
#60 = PERSON_AND_ORGANIZATION_ROLE ( 'design_supplier' ) ;
#61 = DATE_AND_TIME ( #136, #47 ) ;
#62 = CARTESIAN_POINT ( 'NONE',  ( 1.000000000000000000, 7.654042494670957600E-016, -6.250000000000000000 ) ) ;
#63 = MANIFOLD_SOLID_BREP ( 'Extrude1', #149 ) ;
#64 = LOCAL_TIME ( 13, 39, 13.00000000000000000, #106 ) ;
#65 = CIRCLE ( 'NONE', #91, 6.250000000000000000 ) ;
#66 = CARTESIAN_POINT ( 'NONE',  ( 0.0000000000000000000, 0.0000000000000000000, 0.0000000000000000000 ) ) ;
#67 = CC_DESIGN_PERSON_AND_ORGANIZATION_ASSIGNMENT ( #49, #76, ( #87 ) ) ;
#68 = CIRCLE ( 'NONE', #126, 6.250000000000000000 ) ;
#69 = CARTESIAN_POINT ( 'NONE',  ( 0.0000000000000000000, 0.0000000000000000000, 0.0000000000000000000 ) ) ;
#70 = DIRECTION ( 'NONE',  ( 0.0000000000000000000, 0.0000000000000000000, 1.000000000000000000 ) ) ;
#71 = FACE_OUTER_BOUND ( 'NONE', #163, .T. ) ;
#72 = PERSON_AND_ORGANIZATION ( #122, #95 ) ;
#73 = CC_DESIGN_APPROVAL ( #109, ( #87 ) ) ;
#74 = DIRECTION ( 'NONE',  ( 1.000000000000000000, 0.0000000000000000000, 0.0000000000000000000 ) ) ;
#75 = CARTESIAN_POINT ( 'NONE',  ( 1.000000000000000000, 0.0000000000000000000, 0.0000000000000000000 ) ) ;
#76 = PERSON_AND_ORGANIZATION_ROLE ( 'creator' ) ;
#77 = ADVANCED_BREP_SHAPE_REPRESENTATION ( 'Web Model 68735_83347', ( #63, #148 ), #129 ) ;
#78 = AXIS2_PLACEMENT_3D ( 'NONE', #138, #101, #154 ) ;
#79 = PRODUCT_DEFINITION ( 'UNKNOWN', '', #87, #131 ) ;
#80 = APPROVAL_STATUS ( 'not_yet_approved' ) ;
#81 = SHAPE_DEFINITION_REPRESENTATION ( #32, #77 ) ;
#82 = DIRECTION ( 'NONE',  ( -1.000000000000000000, -0.0000000000000000000, -0.0000000000000000000 ) ) ;
#83 = DATE_AND_TIME ( #130, #23 ) ;
#84 = EDGE_LOOP ( 'NONE', ( #175, #164 ) ) ;
#85 = CC_DESIGN_PERSON_AND_ORGANIZATION_ASSIGNMENT ( #170, #34, ( #79 ) ) ;
#86 = ADVANCED_FACE ( 'NONE', ( #39 ), #99, .T. ) ;
#87 = PRODUCT_DEFINITION_FORMATION_WITH_SPECIFIED_SOURCE ( 'ANY', '', #9, .NOT_KNOWN. ) ;
#88 = CARTESIAN_POINT ( 'NONE',  ( 1.000000000000000000, 7.654042494670957600E-016, -6.250000000000000000 ) ) ;
#89 = DIRECTION ( 'NONE',  ( 0.0000000000000000000, 0.0000000000000000000, -1.000000000000000000 ) ) ;
#90 = DIRECTION ( 'NONE',  ( 0.0000000000000000000, 0.0000000000000000000, -1.000000000000000000 ) ) ;
#91 = AXIS2_PLACEMENT_3D ( 'NONE', #48, #107, #36 ) ;
#92 = APPLICATION_CONTEXT ( 'configuration controlled 3d designs of mechanical parts and assemblies' ) ;
#93 = CIRCLE ( 'NONE', #78, 6.250000000000000000 ) ;
#94 = ORIENTED_EDGE ( 'NONE', *, *, #24, .F. ) ;
#95 = ORGANIZATION ( 'UNSPECIFIED', 'UNSPECIFIED', '' ) ;
#96 = CC_DESIGN_DATE_AND_TIME_ASSIGNMENT ( #30, #6, ( #79 ) ) ;
#97 = VECTOR ( 'NONE', #167, 1000.000000000000000 ) ;
#98 = APPROVAL_ROLE ( '' ) ;
#99 = CYLINDRICAL_SURFACE ( 'NONE', #119, 6.250000000000000000 ) ;
#100 = ORIENTED_EDGE ( 'NONE', *, *, #133, .F. ) ;
#101 = DIRECTION ( 'NONE',  ( 1.000000000000000000, 0.0000000000000000000, 0.0000000000000000000 ) ) ;
#102 = CALENDAR_DATE ( 2017, 6, 3 ) ;
#103 = APPROVAL ( #153, 'UNSPECIFIED' ) ;
#104 = DATE_TIME_ROLE ( 'classification_date' ) ;
#105 = CARTESIAN_POINT ( 'NONE',  ( 1.000000000000000000, 0.0000000000000000000, 0.0000000000000000000 ) ) ;
#106 = COORDINATED_UNIVERSAL_TIME_OFFSET ( 5, 0, .BEHIND. ) ;
#107 = DIRECTION ( 'NONE',  ( 1.000000000000000000, 0.0000000000000000000, 0.0000000000000000000 ) ) ;
#108 = PERSON_AND_ORGANIZATION ( #122, #95 ) ;
#109 = APPROVAL ( #80, 'UNSPECIFIED' ) ;
#110 = CC_DESIGN_APPROVAL ( #103, ( #79 ) ) ;
#111 = CARTESIAN_POINT ( 'NONE',  ( 0.0000000000000000000, 0.0000000000000000000, 0.0000000000000000000 ) ) ;
#112 = PERSON_AND_ORGANIZATION ( #122, #95 ) ;
#113 = CARTESIAN_POINT ( 'NONE',  ( 0.0000000000000000000, 0.0000000000000000000, 0.0000000000000000000 ) ) ;
#114 = ORIENTED_EDGE ( 'NONE', *, *, #157, .F. ) ;
#115 = COORDINATED_UNIVERSAL_TIME_OFFSET ( 5, 0, .BEHIND. ) ;
#116 = APPROVAL_PERSON_ORGANIZATION ( #112, #20, #172 ) ;
#117 = FACE_OUTER_BOUND ( 'NONE', #84, .T. ) ;
#118 = AXIS2_PLACEMENT_3D ( 'NONE', #8, #58, #137 ) ;
#119 = AXIS2_PLACEMENT_3D ( 'NONE', #105, #174, #19 ) ;
#120 = SECURITY_CLASSIFICATION_LEVEL ( 'unclassified' ) ;
#121 = ORIENTED_EDGE ( 'NONE', *, *, #165, .F. ) ;
#122 = PERSON ( 'UNSPECIFIED', 'UNSPECIFIED', 'UNSPECIFIED', ('UNSPECIFIED'), ('UNSPECIFIED'), ('UNSPECIFIED') ) ;
#123 = EDGE_CURVE ( 'NONE', #25, #125, #65, .T. ) ;
#124 = DIRECTION ( 'NONE',  ( 0.0000000000000000000, 0.0000000000000000000, 1.000000000000000000 ) ) ;
#125 = VERTEX_POINT ( 'NONE', #139 ) ;
#126 = AXIS2_PLACEMENT_3D ( 'NONE', #113, #155, #90 ) ;
#127 =( NAMED_UNIT ( * ) SI_UNIT ( $, .STERADIAN. ) SOLID_ANGLE_UNIT ( ) );
#128 = VERTEX_POINT ( 'NONE', #134 ) ;
#129 =( GEOMETRIC_REPRESENTATION_CONTEXT ( 3 ) GLOBAL_UNCERTAINTY_ASSIGNED_CONTEXT ( ( #132 ) ) GLOBAL_UNIT_ASSIGNED_CONTEXT ( ( #160, #151, #127 ) ) REPRESENTATION_CONTEXT ( 'NONE', 'WORKASPACE' ) );
#130 = CALENDAR_DATE ( 2017, 6, 3 ) ;
#131 = DESIGN_CONTEXT ( 'detailed design', #33, 'design' ) ;
#132 = UNCERTAINTY_MEASURE_WITH_UNIT (LENGTH_MEASURE( 1.000000000000000100E-005 ), #160, 'distance_accuracy_value', 'NONE');
#133 = EDGE_CURVE ( 'NONE', #128, #171, #159, .T. ) ;
#134 = CARTESIAN_POINT ( 'NONE',  ( 0.0000000000000000000, 0.0000000000000000000, 6.250000000000000000 ) ) ;
#135 = CALENDAR_DATE ( 2017, 6, 3 ) ;
#136 = CALENDAR_DATE ( 2017, 6, 3 ) ;
#137 = DIRECTION ( 'NONE',  ( 0.0000000000000000000, 0.0000000000000000000, -1.000000000000000000 ) ) ;
#138 = CARTESIAN_POINT ( 'NONE',  ( 1.000000000000000000, 0.0000000000000000000, 0.0000000000000000000 ) ) ;
#139 = CARTESIAN_POINT ( 'NONE',  ( 1.000000000000000000, 0.0000000000000000000, 6.250000000000000000 ) ) ;
#140 = APPROVAL_STATUS ( 'not_yet_approved' ) ;
#141 = APPROVAL_ROLE ( '' ) ;
#142 = COORDINATED_UNIVERSAL_TIME_OFFSET ( 5, 0, .BEHIND. ) ;
#143 = PRODUCT_RELATED_PRODUCT_CATEGORY ( 'detail', '', ( #9 ) ) ;
#144 = APPLICATION_PROTOCOL_DEFINITION ( 'international standard', 'config_control_design', 1994, #92 ) ;
#145 = CYLINDRICAL_SURFACE ( 'NONE', #55, 6.250000000000000000 ) ;
#146 = EDGE_LOOP ( 'NONE', ( #121, #94, #42, #18 ) ) ;
#147 = EDGE_CURVE ( 'NONE', #125, #128, #156, .T. ) ;
#148 = AXIS2_PLACEMENT_3D ( 'NONE', #66, #70, #74 ) ;
#149 = CLOSED_SHELL ( 'NONE', ( #44, #86, #27, #7 ) ) ;
#150 = APPROVAL_DATE_TIME ( #168, #109 ) ;
#151 =( NAMED_UNIT ( * ) PLANE_ANGLE_UNIT ( ) SI_UNIT ( $, .RADIAN. ) );
#152 = COORDINATED_UNIVERSAL_TIME_OFFSET ( 5, 0, .BEHIND. ) ;
#153 = APPROVAL_STATUS ( 'not_yet_approved' ) ;
#154 = DIRECTION ( 'NONE',  ( 0.0000000000000000000, 0.0000000000000000000, -1.000000000000000000 ) ) ;
#155 = DIRECTION ( 'NONE',  ( 1.000000000000000000, 0.0000000000000000000, 0.0000000000000000000 ) ) ;
#156 = LINE ( 'NONE', #161, #41 ) ;
#157 = EDGE_CURVE ( 'NONE', #171, #128, #68, .T. ) ;
#158 = CC_DESIGN_PERSON_AND_ORGANIZATION_ASSIGNMENT ( #108, #12, ( #9 ) ) ;
#159 = CIRCLE ( 'NONE', #31, 6.250000000000000000 ) ;
#160 =( LENGTH_UNIT ( ) NAMED_UNIT ( * ) SI_UNIT ( .MILLI., .METRE. ) );
#161 = CARTESIAN_POINT ( 'NONE',  ( 1.000000000000000000, 0.0000000000000000000, 6.250000000000000000 ) ) ;
#162 = APPROVAL_PERSON_ORGANIZATION ( #72, #103, #141 ) ;
#163 = EDGE_LOOP ( 'NONE', ( #54, #56, #28, #11 ) ) ;
#164 = ORIENTED_EDGE ( 'NONE', *, *, #123, .T. ) ;
#165 = EDGE_CURVE ( 'NONE', #25, #171, #5, .T. ) ;
#166 = DIRECTION ( 'NONE',  ( 1.000000000000000000, 0.0000000000000000000, 0.0000000000000000000 ) ) ;
#167 = DIRECTION ( 'NONE',  ( -1.000000000000000000, -0.0000000000000000000, -0.0000000000000000000 ) ) ;
#168 = DATE_AND_TIME ( #102, #38 ) ;
#169 = LOCAL_TIME ( 13, 39, 13.00000000000000000, #142 ) ;
#170 = PERSON_AND_ORGANIZATION ( #122, #95 ) ;
#171 = VERTEX_POINT ( 'NONE', #45 ) ;
#172 = APPROVAL_ROLE ( '' ) ;
#173 = CALENDAR_DATE ( 2017, 6, 3 ) ;
#174 = DIRECTION ( 'NONE',  ( -1.000000000000000000, -0.0000000000000000000, -0.0000000000000000000 ) ) ;
#175 = ORIENTED_EDGE ( 'NONE', *, *, #24, .T. ) ;
ENDSEC;
END-ISO-10303-21;
