ISO-10303-21;
HEADER;
FILE_DESCRIPTION (( 'STEP AP203' ),
    '1' );
FILE_NAME ('Web Model 68379_48901.step',
    '2017-03-01T19:08:03',
    ( '' ),
    ( '' ),
    'SwSTEP 2.0',
    'SolidWorks 2016',
    '' );
FILE_SCHEMA (( 'CONFIG_CONTROL_DESIGN' ));
ENDSEC;

DATA;
#1 = LINE ( 'NONE', #144, #94 ) ;
#2 = FACE_OUTER_BOUND ( 'NONE', #30, .T. ) ;
#3 = ADVANCED_FACE ( 'NONE', ( #142 ), #6, .F. ) ;
#4 = PERSON_AND_ORGANIZATION_ROLE ( 'creator' ) ;
#5 = FACE_OUTER_BOUND ( 'NONE', #125, .T. ) ;
#6 = PLANE ( 'NONE',  #58 ) ;
#7 = MECHANICAL_CONTEXT ( 'NONE', #165, 'mechanical' ) ;
#8 = DATE_AND_TIME ( #72, #44 ) ;
#9 = DIRECTION ( 'NONE',  ( -1.000000000000000000, -1.850371707708594100E-016, 0.0000000000000000000 ) ) ;
#10 = EDGE_CURVE ( 'NONE', #127, #217, #103, .T. ) ;
#11 = VECTOR ( 'NONE', #65, 1000.000000000000000 ) ;
#12 = CARTESIAN_POINT ( 'NONE',  ( -37.50000000000000000, -37.50000000000000700, 0.0000000000000000000 ) ) ;
#13 = ORIENTED_EDGE ( 'NONE', *, *, #234, .F. ) ;
#14 = APPROVAL_DATE_TIME ( #235, #210 ) ;
#15 = CARTESIAN_POINT ( 'NONE',  ( -37.50000000000000000, -37.50000000000000700, 3.000000000000000000 ) ) ;
#16 = CARTESIAN_POINT ( 'NONE',  ( 37.50000000000000000, 37.49999999999999300, 0.0000000000000000000 ) ) ;
#17 = CARTESIAN_POINT ( 'NONE',  ( -37.50000000000000700, 37.49999999999999300, 3.000000000000000000 ) ) ;
#18 = SHAPE_DEFINITION_REPRESENTATION ( #63, #134 ) ;
#19 = DATE_AND_TIME ( #95, #203 ) ;
#20 = COORDINATED_UNIVERSAL_TIME_OFFSET ( 5, 0, .BEHIND. ) ;
#21 = EDGE_CURVE ( 'NONE', #141, #218, #77, .T. ) ;
#22 = COORDINATED_UNIVERSAL_TIME_OFFSET ( 5, 0, .BEHIND. ) ;
#23 = FACE_OUTER_BOUND ( 'NONE', #181, .T. ) ;
#24 = CARTESIAN_POINT ( 'NONE',  ( 37.50000000000000000, 37.49999999999999300, 3.000000000000000000 ) ) ;
#25 = VECTOR ( 'NONE', #208, 1000.000000000000000 ) ;
#26 = APPROVAL_STATUS ( 'not_yet_approved' ) ;
#27 = DIRECTION ( 'NONE',  ( -1.850371707708594100E-016, 1.000000000000000000, 0.0000000000000000000 ) ) ;
#28 = CC_DESIGN_APPROVAL ( #210, ( #195 ) ) ;
#29 = EDGE_CURVE ( 'NONE', #217, #221, #160, .T. ) ;
#30 = EDGE_LOOP ( 'NONE', ( #93, #176, #81, #56 ) ) ;
#31 = VERTEX_POINT ( 'NONE', #15 ) ;
#32 = DATE_AND_TIME ( #188, #154 ) ;
#33 = LINE ( 'NONE', #70, #177 ) ;
#34 = ORIENTED_EDGE ( 'NONE', *, *, #136, .F. ) ;
#35 = CC_DESIGN_PERSON_AND_ORGANIZATION_ASSIGNMENT ( #106, #86, ( #195 ) ) ;
#36 = CARTESIAN_POINT ( 'NONE',  ( -37.50000000000000700, 37.49999999999999300, 0.0000000000000000000 ) ) ;
#37 = PLANE ( 'NONE',  #60 ) ;
#38 = ORIENTED_EDGE ( 'NONE', *, *, #164, .T. ) ;
#39 = APPROVAL_PERSON_ORGANIZATION ( #130, #155, #189 ) ;
#40 = CARTESIAN_POINT ( 'NONE',  ( -37.50000000000000000, -37.50000000000000700, 0.0000000000000000000 ) ) ;
#41 = VECTOR ( 'NONE', #191, 1000.000000000000000 ) ;
#42 = AXIS2_PLACEMENT_3D ( 'NONE', #182, #172, #145 ) ;
#43 = CARTESIAN_POINT ( 'NONE',  ( -37.50000000000000700, 37.49999999999999300, 3.000000000000000000 ) ) ;
#44 = LOCAL_TIME ( 14, 8, 3.000000000000000000, #22 ) ;
#45 = CC_DESIGN_DATE_AND_TIME_ASSIGNMENT ( #32, #190, ( #195 ) ) ;
#46 = PERSON_AND_ORGANIZATION ( #59, #153 ) ;
#47 = LINE ( 'NONE', #233, #213 ) ;
#48 = UNCERTAINTY_MEASURE_WITH_UNIT (LENGTH_MEASURE( 1.000000000000000100E-005 ), #215, 'distance_accuracy_value', 'NONE');
#49 = DIRECTION ( 'NONE',  ( 1.000000000000000000, 1.850371707708594300E-016, -0.0000000000000000000 ) ) ;
#50 = CARTESIAN_POINT ( 'NONE',  ( 37.50000000000000000, 37.49999999999999300, 3.000000000000000000 ) ) ;
#51 = APPLICATION_PROTOCOL_DEFINITION ( 'international standard', 'config_control_design', 1994, #165 ) ;
#52 = APPROVAL_STATUS ( 'not_yet_approved' ) ;
#53 = DATE_TIME_ROLE ( 'classification_date' ) ;
#54 = CARTESIAN_POINT ( 'NONE',  ( -37.50000000000000700, 37.49999999999999300, 3.000000000000000000 ) ) ;
#55 = PRODUCT_DEFINITION_FORMATION_WITH_SPECIFIED_SOURCE ( 'ANY', '', #158, .NOT_KNOWN. ) ;
#56 = ORIENTED_EDGE ( 'NONE', *, *, #234, .T. ) ;
#57 = DIRECTION ( 'NONE',  ( 0.0000000000000000000, -0.0000000000000000000, -1.000000000000000000 ) ) ;
#58 = AXIS2_PLACEMENT_3D ( 'NONE', #104, #228, #88 ) ;
#59 = PERSON ( 'UNSPECIFIED', 'UNSPECIFIED', 'UNSPECIFIED', ('UNSPECIFIED'), ('UNSPECIFIED'), ('UNSPECIFIED') ) ;
#60 = AXIS2_PLACEMENT_3D ( 'NONE', #12, #173, #91 ) ;
#61 = ORIENTED_EDGE ( 'NONE', *, *, #150, .T. ) ;
#62 = ORIENTED_EDGE ( 'NONE', *, *, #212, .T. ) ;
#63 = PRODUCT_DEFINITION_SHAPE ( 'NONE', 'NONE',  #195 ) ;
#64 = VECTOR ( 'NONE', #139, 1000.000000000000000 ) ;
#65 = DIRECTION ( 'NONE',  ( -0.0000000000000000000, -0.0000000000000000000, -1.000000000000000000 ) ) ;
#66 = DIRECTION ( 'NONE',  ( 1.000000000000000000, 1.850371707708594300E-016, -0.0000000000000000000 ) ) ;
#67 = APPLICATION_PROTOCOL_DEFINITION ( 'international standard', 'config_control_design', 1994, #118 ) ;
#68 = APPROVAL ( #52, 'UNSPECIFIED' ) ;
#69 = CARTESIAN_POINT ( 'NONE',  ( 37.50000000000000000, 37.49999999999999300, 0.0000000000000000000 ) ) ;
#70 = CARTESIAN_POINT ( 'NONE',  ( 37.50000000000000000, -37.49999999999999300, 3.000000000000000000 ) ) ;
#71 = DIRECTION ( 'NONE',  ( 0.0000000000000000000, 0.0000000000000000000, 1.000000000000000000 ) ) ;
#72 = CALENDAR_DATE ( 2017, 1, 3 ) ;
#73 = CARTESIAN_POINT ( 'NONE',  ( 37.50000000000000000, -37.49999999999999300, 3.000000000000000000 ) ) ;
#74 = CARTESIAN_POINT ( 'NONE',  ( 37.50000000000000000, -37.49999999999999300, 3.000000000000000000 ) ) ;
#75 = DATE_AND_TIME ( #111, #90 ) ;
#76 = ORIENTED_EDGE ( 'NONE', *, *, #237, .F. ) ;
#77 = LINE ( 'NONE', #69, #222 ) ;
#78 = LINE ( 'NONE', #43, #11 ) ;
#79 = CC_DESIGN_APPROVAL ( #68, ( #55 ) ) ;
#80 = ADVANCED_FACE ( 'NONE', ( #98 ), #148, .F. ) ;
#81 = ORIENTED_EDGE ( 'NONE', *, *, #29, .F. ) ;
#82 = AXIS2_PLACEMENT_3D ( 'NONE', #73, #27, #9 ) ;
#83 = CARTESIAN_POINT ( 'NONE',  ( 37.50000000000000000, 37.49999999999999300, 3.000000000000000000 ) ) ;
#84 = VERTEX_POINT ( 'NONE', #40 ) ;
#85 = PLANE ( 'NONE',  #112 ) ;
#86 = PERSON_AND_ORGANIZATION_ROLE ( 'creator' ) ;
#87 = AXIS2_PLACEMENT_3D ( 'NONE', #83, #119, #57 ) ;
#88 = DIRECTION ( 'NONE',  ( -1.000000000000000000, 0.0000000000000000000, -0.0000000000000000000 ) ) ;
#89 = ORIENTED_EDGE ( 'NONE', *, *, #180, .T. ) ;
#90 = LOCAL_TIME ( 14, 8, 3.000000000000000000, #20 ) ;
#91 = DIRECTION ( 'NONE',  ( -1.000000000000000000, 0.0000000000000000000, -0.0000000000000000000 ) ) ;
#92 = APPROVAL_STATUS ( 'not_yet_approved' ) ;
#93 = ORIENTED_EDGE ( 'NONE', *, *, #21, .T. ) ;
#94 = VECTOR ( 'NONE', #232, 1000.000000000000000 ) ;
#95 = CALENDAR_DATE ( 2017, 1, 3 ) ;
#96 = CARTESIAN_POINT ( 'NONE',  ( 37.50000000000000000, -37.49999999999999300, 0.0000000000000000000 ) ) ;
#97 = CC_DESIGN_PERSON_AND_ORGANIZATION_ASSIGNMENT ( #175, #4, ( #55 ) ) ;
#98 = FACE_OUTER_BOUND ( 'NONE', #129, .T. ) ;
#99 = COORDINATED_UNIVERSAL_TIME_OFFSET ( 5, 0, .BEHIND. ) ;
#100 =( GEOMETRIC_REPRESENTATION_CONTEXT ( 3 ) GLOBAL_UNCERTAINTY_ASSIGNED_CONTEXT ( ( #48 ) ) GLOBAL_UNIT_ASSIGNED_CONTEXT ( ( #215, #110, #169 ) ) REPRESENTATION_CONTEXT ( 'NONE', 'WORKASPACE' ) );
#101 = COORDINATED_UNIVERSAL_TIME_OFFSET ( 5, 0, .BEHIND. ) ;
#102 = ORIENTED_EDGE ( 'NONE', *, *, #225, .F. ) ;
#103 = LINE ( 'NONE', #227, #114 ) ;
#104 = CARTESIAN_POINT ( 'NONE',  ( -37.50000000000000000, -37.50000000000000700, 3.000000000000000000 ) ) ;
#105 = CC_DESIGN_PERSON_AND_ORGANIZATION_ASSIGNMENT ( #220, #126, ( #55 ) ) ;
#106 = PERSON_AND_ORGANIZATION ( #59, #153 ) ;
#107 = DIRECTION ( 'NONE',  ( -1.000000000000000000, 0.0000000000000000000, 0.0000000000000000000 ) ) ;
#108 = PLANE ( 'NONE',  #87 ) ;
#109 = PERSON_AND_ORGANIZATION ( #59, #153 ) ;
#110 =( NAMED_UNIT ( * ) PLANE_ANGLE_UNIT ( ) SI_UNIT ( $, .RADIAN. ) );
#111 = CALENDAR_DATE ( 2017, 1, 3 ) ;
#112 = AXIS2_PLACEMENT_3D ( 'NONE', #50, #107, #124 ) ;
#113 = VECTOR ( 'NONE', #170, 1000.000000000000000 ) ;
#114 = VECTOR ( 'NONE', #147, 1000.000000000000000 ) ;
#115 = SECURITY_CLASSIFICATION ( '', '', #214 ) ;
#116 = ADVANCED_FACE ( 'NONE', ( #5 ), #211, .F. ) ;
#117 = ORIENTED_EDGE ( 'NONE', *, *, #21, .F. ) ;
#118 = APPLICATION_CONTEXT ( 'configuration controlled 3d designs of mechanical parts and assemblies' ) ;
#119 = DIRECTION ( 'NONE',  ( 0.0000000000000000000, -1.000000000000000000, 0.0000000000000000000 ) ) ;
#120 = ORIENTED_EDGE ( 'NONE', *, *, #180, .F. ) ;
#121 = PERSON_AND_ORGANIZATION_ROLE ( 'design_owner' ) ;
#122 = ORIENTED_EDGE ( 'NONE', *, *, #225, .T. ) ;
#123 = CARTESIAN_POINT ( 'NONE',  ( -37.50000000000000700, 37.49999999999999300, 0.0000000000000000000 ) ) ;
#124 = DIRECTION ( 'NONE',  ( 0.0000000000000000000, 0.0000000000000000000, 1.000000000000000000 ) ) ;
#125 = EDGE_LOOP ( 'NONE', ( #137, #146, #76, #38 ) ) ;
#126 = PERSON_AND_ORGANIZATION_ROLE ( 'design_supplier' ) ;
#127 = VERTEX_POINT ( 'NONE', #187 ) ;
#128 = CC_DESIGN_PERSON_AND_ORGANIZATION_ASSIGNMENT ( #109, #229, ( #115 ) ) ;
#129 = EDGE_LOOP ( 'NONE', ( #89, #196, #161, #61 ) ) ;
#130 = PERSON_AND_ORGANIZATION ( #59, #153 ) ;
#131 = VECTOR ( 'NONE', #219, 1000.000000000000000 ) ;
#132 = VECTOR ( 'NONE', #216, 1000.000000000000000 ) ;
#133 = ADVANCED_FACE ( 'NONE', ( #152 ), #37, .T. ) ;
#134 = ADVANCED_BREP_SHAPE_REPRESENTATION ( 'Web Model 68379_48901', ( #186, #162 ), #100 ) ;
#135 = LINE ( 'NONE', #54, #113 ) ;
#136 = EDGE_CURVE ( 'NONE', #218, #84, #236, .T. ) ;
#137 = ORIENTED_EDGE ( 'NONE', *, *, #136, .T. ) ;
#138 = ORIENTED_EDGE ( 'NONE', *, *, #197, .T. ) ;
#139 = DIRECTION ( 'NONE',  ( 9.251858538542971600E-017, -1.000000000000000000, 0.0000000000000000000 ) ) ;
#140 = CC_DESIGN_DATE_AND_TIME_ASSIGNMENT ( #19, #53, ( #115 ) ) ;
#141 = VERTEX_POINT ( 'NONE', #143 ) ;
#142 = FACE_OUTER_BOUND ( 'NONE', #183, .T. ) ;
#143 = CARTESIAN_POINT ( 'NONE',  ( 37.50000000000000000, 37.49999999999999300, 0.0000000000000000000 ) ) ;
#144 = CARTESIAN_POINT ( 'NONE',  ( 37.50000000000000000, 37.49999999999999300, 3.000000000000000000 ) ) ;
#145 = DIRECTION ( 'NONE',  ( -9.251858538542970300E-017, 1.000000000000000000, 0.0000000000000000000 ) ) ;
#146 = ORIENTED_EDGE ( 'NONE', *, *, #150, .F. ) ;
#147 = DIRECTION ( 'NONE',  ( -0.0000000000000000000, 1.000000000000000000, -0.0000000000000000000 ) ) ;
#148 = PLANE ( 'NONE',  #82 ) ;
#149 = LOCAL_TIME ( 14, 8, 3.000000000000000000, #226 ) ;
#150 = EDGE_CURVE ( 'NONE', #31, #84, #179, .T. ) ;
#151 = APPROVAL_PERSON_ORGANIZATION ( #231, #210, #202 ) ;
#152 = FACE_OUTER_BOUND ( 'NONE', #192, .T. ) ;
#153 = ORGANIZATION ( 'UNSPECIFIED', 'UNSPECIFIED', '' ) ;
#154 = LOCAL_TIME ( 14, 8, 3.000000000000000000, #101 ) ;
#155 = APPROVAL ( #26, 'UNSPECIFIED' ) ;
#156 = ADVANCED_FACE ( 'NONE', ( #2 ), #108, .F. ) ;
#157 = CARTESIAN_POINT ( 'NONE',  ( 37.50000000000000000, 37.49999999999999300, 3.000000000000000000 ) ) ;
#158 = PRODUCT ( 'Web Model 68379_48901', 'Web Model 68379_48901', '', ( #7 ) ) ;
#159 = CALENDAR_DATE ( 2017, 1, 3 ) ;
#160 = LINE ( 'NONE', #157, #132 ) ;
#161 = ORIENTED_EDGE ( 'NONE', *, *, #212, .F. ) ;
#162 = AXIS2_PLACEMENT_3D ( 'NONE', #168, #71, #193 ) ;
#163 = APPROVAL_ROLE ( '' ) ;
#164 = EDGE_CURVE ( 'NONE', #221, #218, #78, .T. ) ;
#165 = APPLICATION_CONTEXT ( 'configuration controlled 3d designs of mechanical parts and assemblies' ) ;
#166 = ORIENTED_EDGE ( 'NONE', *, *, #237, .T. ) ;
#167 = ORIENTED_EDGE ( 'NONE', *, *, #10, .T. ) ;
#168 = CARTESIAN_POINT ( 'NONE',  ( 0.0000000000000000000, 0.0000000000000000000, 0.0000000000000000000 ) ) ;
#169 =( NAMED_UNIT ( * ) SI_UNIT ( $, .STERADIAN. ) SOLID_ANGLE_UNIT ( ) );
#170 = DIRECTION ( 'NONE',  ( 9.251858538542971600E-017, -1.000000000000000000, 0.0000000000000000000 ) ) ;
#171 = APPROVAL_DATE_TIME ( #75, #68 ) ;
#172 = DIRECTION ( 'NONE',  ( 1.000000000000000000, 9.251858538542970300E-017, -0.0000000000000000000 ) ) ;
#173 = DIRECTION ( 'NONE',  ( 0.0000000000000000000, 0.0000000000000000000, -1.000000000000000000 ) ) ;
#174 = CC_DESIGN_APPROVAL ( #155, ( #115 ) ) ;
#175 = PERSON_AND_ORGANIZATION ( #59, #153 ) ;
#176 = ORIENTED_EDGE ( 'NONE', *, *, #164, .F. ) ;
#177 = VECTOR ( 'NONE', #49, 1000.000000000000000 ) ;
#178 = CC_DESIGN_PERSON_AND_ORGANIZATION_ASSIGNMENT ( #230, #121, ( #158 ) ) ;
#179 = LINE ( 'NONE', #184, #25 ) ;
#180 = EDGE_CURVE ( 'NONE', #84, #224, #47, .T. ) ;
#181 = EDGE_LOOP ( 'NONE', ( #122, #13, #206, #138 ) ) ;
#182 = CARTESIAN_POINT ( 'NONE',  ( -37.50000000000000700, 37.49999999999999300, 3.000000000000000000 ) ) ;
#183 = EDGE_LOOP ( 'NONE', ( #166, #62, #167, #209 ) ) ;
#184 = CARTESIAN_POINT ( 'NONE',  ( -37.50000000000000000, -37.50000000000000700, 3.000000000000000000 ) ) ;
#185 = CC_DESIGN_SECURITY_CLASSIFICATION ( #115, ( #55 ) ) ;
#186 = MANIFOLD_SOLID_BREP ( 'Extrude1', #199 ) ;
#187 = CARTESIAN_POINT ( 'NONE',  ( 37.50000000000000000, -37.49999999999999300, 3.000000000000000000 ) ) ;
#188 = CALENDAR_DATE ( 2017, 1, 3 ) ;
#189 = APPROVAL_ROLE ( '' ) ;
#190 = DATE_TIME_ROLE ( 'creation_date' ) ;
#191 = DIRECTION ( 'NONE',  ( -0.0000000000000000000, 1.000000000000000000, -0.0000000000000000000 ) ) ;
#192 = EDGE_LOOP ( 'NONE', ( #34, #117, #102, #120 ) ) ;
#193 = DIRECTION ( 'NONE',  ( 1.000000000000000000, 0.0000000000000000000, 0.0000000000000000000 ) ) ;
#194 = LINE ( 'NONE', #16, #41 ) ;
#195 = PRODUCT_DEFINITION ( 'UNKNOWN', '', #55, #223 ) ;
#196 = ORIENTED_EDGE ( 'NONE', *, *, #197, .F. ) ;
#197 = EDGE_CURVE ( 'NONE', #127, #224, #198, .T. ) ;
#198 = LINE ( 'NONE', #74, #131 ) ;
#199 = CLOSED_SHELL ( 'NONE', ( #116, #80, #204, #156, #3, #133 ) ) ;
#200 = APPROVAL_DATE_TIME ( #8, #155 ) ;
#201 = PRODUCT_RELATED_PRODUCT_CATEGORY ( 'detail', '', ( #158 ) ) ;
#202 = APPROVAL_ROLE ( '' ) ;
#203 = LOCAL_TIME ( 14, 8, 3.000000000000000000, #99 ) ;
#204 = ADVANCED_FACE ( 'NONE', ( #23 ), #85, .F. ) ;
#205 = APPROVAL_PERSON_ORGANIZATION ( #46, #68, #163 ) ;
#206 = ORIENTED_EDGE ( 'NONE', *, *, #10, .F. ) ;
#207 = DIRECTION ( 'NONE',  ( -1.000000000000000000, 0.0000000000000000000, 0.0000000000000000000 ) ) ;
#208 = DIRECTION ( 'NONE',  ( -0.0000000000000000000, -0.0000000000000000000, -1.000000000000000000 ) ) ;
#209 = ORIENTED_EDGE ( 'NONE', *, *, #29, .T. ) ;
#210 = APPROVAL ( #92, 'UNSPECIFIED' ) ;
#211 = PLANE ( 'NONE',  #42 ) ;
#212 = EDGE_CURVE ( 'NONE', #31, #127, #33, .T. ) ;
#213 = VECTOR ( 'NONE', #66, 1000.000000000000000 ) ;
#214 = SECURITY_CLASSIFICATION_LEVEL ( 'unclassified' ) ;
#215 =( LENGTH_UNIT ( ) NAMED_UNIT ( * ) SI_UNIT ( .MILLI., .METRE. ) );
#216 = DIRECTION ( 'NONE',  ( -1.000000000000000000, 0.0000000000000000000, 0.0000000000000000000 ) ) ;
#217 = VERTEX_POINT ( 'NONE', #24 ) ;
#218 = VERTEX_POINT ( 'NONE', #123 ) ;
#219 = DIRECTION ( 'NONE',  ( -0.0000000000000000000, -0.0000000000000000000, -1.000000000000000000 ) ) ;
#220 = PERSON_AND_ORGANIZATION ( #59, #153 ) ;
#221 = VERTEX_POINT ( 'NONE', #17 ) ;
#222 = VECTOR ( 'NONE', #207, 1000.000000000000000 ) ;
#223 = DESIGN_CONTEXT ( 'detailed design', #118, 'design' ) ;
#224 = VERTEX_POINT ( 'NONE', #96 ) ;
#225 = EDGE_CURVE ( 'NONE', #224, #141, #194, .T. ) ;
#226 = COORDINATED_UNIVERSAL_TIME_OFFSET ( 5, 0, .BEHIND. ) ;
#227 = CARTESIAN_POINT ( 'NONE',  ( 37.50000000000000000, 37.49999999999999300, 3.000000000000000000 ) ) ;
#228 = DIRECTION ( 'NONE',  ( 0.0000000000000000000, 0.0000000000000000000, -1.000000000000000000 ) ) ;
#229 = PERSON_AND_ORGANIZATION_ROLE ( 'classification_officer' ) ;
#230 = PERSON_AND_ORGANIZATION ( #59, #153 ) ;
#231 = PERSON_AND_ORGANIZATION ( #59, #153 ) ;
#232 = DIRECTION ( 'NONE',  ( -0.0000000000000000000, -0.0000000000000000000, -1.000000000000000000 ) ) ;
#233 = CARTESIAN_POINT ( 'NONE',  ( 37.50000000000000000, -37.49999999999999300, 0.0000000000000000000 ) ) ;
#234 = EDGE_CURVE ( 'NONE', #217, #141, #1, .T. ) ;
#235 = DATE_AND_TIME ( #159, #149 ) ;
#236 = LINE ( 'NONE', #36, #64 ) ;
#237 = EDGE_CURVE ( 'NONE', #221, #31, #135, .T. ) ;
ENDSEC;
END-ISO-10303-21;
