ISO-10303-21;
HEADER;
FILE_DESCRIPTION (( 'STEP AP203' ),
    '1' );
FILE_NAME ('step_35942.step',
    '2017-05-22T20:26:14',
    ( '' ),
    ( '' ),
    'SwSTEP 2.0',
    'SolidWorks 2016',
    '' );
FILE_SCHEMA (( 'CONFIG_CONTROL_DESIGN' ));
ENDSEC;

DATA;
#1 = DIRECTION ( 'NONE',  ( 0.0000000000000000000, 0.0000000000000000000, 1.000000000000000000 ) ) ;
#2 = MECHANICAL_CONTEXT ( 'NONE', #6, 'mechanical' ) ;
#3 = DIRECTION ( 'NONE',  ( 1.000000000000000000, 0.0000000000000000000, 0.0000000000000000000 ) ) ;
#4 = SECURITY_CLASSIFICATION_LEVEL ( 'unclassified' ) ;
#5 = APPROVAL_STATUS ( 'not_yet_approved' ) ;
#6 = APPLICATION_CONTEXT ( 'configuration controlled 3d designs of mechanical parts and assemblies' ) ;
#7 = DIRECTION ( 'NONE',  ( -0.0000000000000000000, -0.0000000000000000000, -1.000000000000000000 ) ) ;
#8 = CARTESIAN_POINT ( 'NONE',  ( -12.50000000000000000, 0.0000000000000000000, 0.0000000000000000000 ) ) ;
#9 = CARTESIAN_POINT ( 'NONE',  ( 0.0000000000000000000, 0.0000000000000000000, 0.0000000000000000000 ) ) ;
#10 = AXIS2_PLACEMENT_3D ( 'NONE', #115, #153, #77 ) ;
#11 = PRODUCT_RELATED_PRODUCT_CATEGORY ( 'detail', '', ( #129 ) ) ;
#12 = VERTEX_POINT ( 'NONE', #152 ) ;
#13 = PERSON_AND_ORGANIZATION ( #110, #60 ) ;
#14 = APPROVAL_DATE_TIME ( #36, #28 ) ;
#15 = CC_DESIGN_SECURITY_CLASSIFICATION ( #38, ( #76 ) ) ;
#16 = CARTESIAN_POINT ( 'NONE',  ( -12.50000000000000000, 0.0000000000000000000, 1.000000000000000000 ) ) ;
#17 = CC_DESIGN_APPROVAL ( #28, ( #38 ) ) ;
#18 = AXIS2_PLACEMENT_3D ( 'NONE', #118, #7, #172 ) ;
#19 = PLANE ( 'NONE',  #10 ) ;
#20 = PERSON_AND_ORGANIZATION_ROLE ( 'creator' ) ;
#21 = CC_DESIGN_PERSON_AND_ORGANIZATION_ASSIGNMENT ( #65, #137, ( #129 ) ) ;
#22 = EDGE_LOOP ( 'NONE', ( #58, #108 ) ) ;
#23 = VERTEX_POINT ( 'NONE', #56 ) ;
#24 = EDGE_CURVE ( 'NONE', #12, #149, #120, .T. ) ;
#25 = DIRECTION ( 'NONE',  ( 0.0000000000000000000, 0.0000000000000000000, 1.000000000000000000 ) ) ;
#26 = AXIS2_PLACEMENT_3D ( 'NONE', #72, #146, #147 ) ;
#27 = DIRECTION ( 'NONE',  ( 1.000000000000000000, 0.0000000000000000000, 0.0000000000000000000 ) ) ;
#28 = APPROVAL ( #105, 'UNSPECIFIED' ) ;
#29 = PRODUCT_DEFINITION_SHAPE ( 'NONE', 'NONE',  #74 ) ;
#30 = FACE_OUTER_BOUND ( 'NONE', #91, .T. ) ;
#31 = CC_DESIGN_DATE_AND_TIME_ASSIGNMENT ( #161, #171, ( #38 ) ) ;
#32 = CC_DESIGN_PERSON_AND_ORGANIZATION_ASSIGNMENT ( #136, #159, ( #38 ) ) ;
#33 = LOCAL_TIME ( 13, 26, 14.00000000000000000, #48 ) ;
#34 = AXIS2_PLACEMENT_3D ( 'NONE', #117, #166, #175 ) ;
#35 = PERSON_AND_ORGANIZATION_ROLE ( 'design_supplier' ) ;
#36 = DATE_AND_TIME ( #50, #33 ) ;
#37 = CALENDAR_DATE ( 2017, 22, 5 ) ;
#38 = SECURITY_CLASSIFICATION ( '', '', #4 ) ;
#39 = CC_DESIGN_PERSON_AND_ORGANIZATION_ASSIGNMENT ( #127, #35, ( #76 ) ) ;
#40 = MANIFOLD_SOLID_BREP ( 'Boss-Extrude1', #155 ) ;
#41 = EDGE_CURVE ( 'NONE', #149, #12, #173, .T. ) ;
#42 = APPROVAL_DATE_TIME ( #164, #85 ) ;
#43 = PERSON_AND_ORGANIZATION_ROLE ( 'creator' ) ;
#44 = EDGE_CURVE ( 'NONE', #12, #23, #163, .T. ) ;
#45 = VECTOR ( 'NONE', #96, 1000.000000000000000 ) ;
#46 = ORIENTED_EDGE ( 'NONE', *, *, #44, .F. ) ;
#47 = CC_DESIGN_PERSON_AND_ORGANIZATION_ASSIGNMENT ( #101, #20, ( #76 ) ) ;
#48 = COORDINATED_UNIVERSAL_TIME_OFFSET ( 7, 0, .BEHIND. ) ;
#49 = CC_DESIGN_APPROVAL ( #84, ( #76 ) ) ;
#50 = CALENDAR_DATE ( 2017, 22, 5 ) ;
#51 = AXIS2_PLACEMENT_3D ( 'NONE', #95, #114, #27 ) ;
#52 = PERSON_AND_ORGANIZATION ( #110, #60 ) ;
#53 = PERSON_AND_ORGANIZATION ( #110, #60 ) ;
#54 = APPROVAL_PERSON_ORGANIZATION ( #53, #84, #165 ) ;
#55 = CIRCLE ( 'NONE', #63, 12.50000000000000000 ) ;
#56 = CARTESIAN_POINT ( 'NONE',  ( 12.50000000000000000, 1.530808498934191500E-015, 0.0000000000000000000 ) ) ;
#57 = CARTESIAN_POINT ( 'NONE',  ( -12.50000000000000000, 0.0000000000000000000, 1.000000000000000000 ) ) ;
#58 = ORIENTED_EDGE ( 'NONE', *, *, #41, .T. ) ;
#59 = CC_DESIGN_PERSON_AND_ORGANIZATION_ASSIGNMENT ( #52, #43, ( #74 ) ) ;
#60 = ORGANIZATION ( 'UNSPECIFIED', 'UNSPECIFIED', '' ) ;
#61 = LOCAL_TIME ( 13, 26, 14.00000000000000000, #70 ) ;
#62 = SHAPE_DEFINITION_REPRESENTATION ( #29, #112 ) ;
#63 = AXIS2_PLACEMENT_3D ( 'NONE', #69, #131, #3 ) ;
#64 = COORDINATED_UNIVERSAL_TIME_OFFSET ( 7, 0, .BEHIND. ) ;
#65 = PERSON_AND_ORGANIZATION ( #110, #60 ) ;
#66 = LOCAL_TIME ( 13, 26, 14.00000000000000000, #64 ) ;
#67 = APPROVAL_PERSON_ORGANIZATION ( #13, #85, #87 ) ;
#68 = CC_DESIGN_APPROVAL ( #85, ( #74 ) ) ;
#69 = CARTESIAN_POINT ( 'NONE',  ( 0.0000000000000000000, 0.0000000000000000000, 0.0000000000000000000 ) ) ;
#70 = COORDINATED_UNIVERSAL_TIME_OFFSET ( 7, 0, .BEHIND. ) ;
#71 = DIRECTION ( 'NONE',  ( 0.0000000000000000000, 0.0000000000000000000, 1.000000000000000000 ) ) ;
#72 = CARTESIAN_POINT ( 'NONE',  ( 0.0000000000000000000, 0.0000000000000000000, 1.000000000000000000 ) ) ;
#73 = COORDINATED_UNIVERSAL_TIME_OFFSET ( 7, 0, .BEHIND. ) ;
#74 = PRODUCT_DEFINITION ( 'UNKNOWN', '', #76, #104 ) ;
#75 = CYLINDRICAL_SURFACE ( 'NONE', #18, 12.50000000000000000 ) ;
#76 = PRODUCT_DEFINITION_FORMATION_WITH_SPECIFIED_SOURCE ( 'ANY', '', #129, .NOT_KNOWN. ) ;
#77 = DIRECTION ( 'NONE',  ( 1.000000000000000000, 0.0000000000000000000, -0.0000000000000000000 ) ) ;
#78 = ADVANCED_FACE ( 'NONE', ( #30 ), #83, .T. ) ;
#79 = ADVANCED_FACE ( 'NONE', ( #121 ), #135, .T. ) ;
#80 = ORIENTED_EDGE ( 'NONE', *, *, #158, .F. ) ;
#81 = CC_DESIGN_DATE_AND_TIME_ASSIGNMENT ( #93, #102, ( #74 ) ) ;
#82 =( NAMED_UNIT ( * ) PLANE_ANGLE_UNIT ( ) SI_UNIT ( $, .RADIAN. ) );
#83 = CYLINDRICAL_SURFACE ( 'NONE', #34, 12.50000000000000000 ) ;
#84 = APPROVAL ( #126, 'UNSPECIFIED' ) ;
#85 = APPROVAL ( #5, 'UNSPECIFIED' ) ;
#86 = DIRECTION ( 'NONE',  ( 1.000000000000000000, 0.0000000000000000000, 0.0000000000000000000 ) ) ;
#87 = APPROVAL_ROLE ( '' ) ;
#88 = PERSON_AND_ORGANIZATION ( #110, #60 ) ;
#89 = ORIENTED_EDGE ( 'NONE', *, *, #44, .T. ) ;
#90 = CIRCLE ( 'NONE', #51, 12.50000000000000000 ) ;
#91 = EDGE_LOOP ( 'NONE', ( #124, #89, #140, #139 ) ) ;
#92 = VECTOR ( 'NONE', #97, 1000.000000000000000 ) ;
#93 = DATE_AND_TIME ( #94, #61 ) ;
#94 = CALENDAR_DATE ( 2017, 22, 5 ) ;
#95 = CARTESIAN_POINT ( 'NONE',  ( 0.0000000000000000000, 0.0000000000000000000, 0.0000000000000000000 ) ) ;
#96 = DIRECTION ( 'NONE',  ( -0.0000000000000000000, -0.0000000000000000000, -1.000000000000000000 ) ) ;
#97 = DIRECTION ( 'NONE',  ( -0.0000000000000000000, -0.0000000000000000000, -1.000000000000000000 ) ) ;
#98 = CALENDAR_DATE ( 2017, 22, 5 ) ;
#99 =( LENGTH_UNIT ( ) NAMED_UNIT ( * ) SI_UNIT ( .MILLI., .METRE. ) );
#100 = ADVANCED_FACE ( 'NONE', ( #143 ), #19, .F. ) ;
#101 = PERSON_AND_ORGANIZATION ( #110, #60 ) ;
#102 = DATE_TIME_ROLE ( 'creation_date' ) ;
#103 = ADVANCED_FACE ( 'NONE', ( #162 ), #75, .T. ) ;
#104 = DESIGN_CONTEXT ( 'detailed design', #132, 'design' ) ;
#105 = APPROVAL_STATUS ( 'not_yet_approved' ) ;
#106 = APPROVAL_ROLE ( '' ) ;
#107 = CARTESIAN_POINT ( 'NONE',  ( 12.50000000000000000, 1.530808498934191500E-015, 1.000000000000000000 ) ) ;
#108 = ORIENTED_EDGE ( 'NONE', *, *, #24, .T. ) ;
#109 = APPROVAL_DATE_TIME ( #111, #84 ) ;
#110 = PERSON ( 'UNSPECIFIED', 'UNSPECIFIED', 'UNSPECIFIED', ('UNSPECIFIED'), ('UNSPECIFIED'), ('UNSPECIFIED') ) ;
#111 = DATE_AND_TIME ( #98, #66 ) ;
#112 = ADVANCED_BREP_SHAPE_REPRESENTATION ( 'step_35942', ( #40, #168 ), #170 ) ;
#113 = APPLICATION_PROTOCOL_DEFINITION ( 'international standard', 'config_control_design', 1994, #132 ) ;
#114 = DIRECTION ( 'NONE',  ( 0.0000000000000000000, 0.0000000000000000000, 1.000000000000000000 ) ) ;
#115 = CARTESIAN_POINT ( 'NONE',  ( 0.0000000000000000000, 0.0000000000000000000, 0.0000000000000000000 ) ) ;
#116 = EDGE_CURVE ( 'NONE', #150, #23, #90, .T. ) ;
#117 = CARTESIAN_POINT ( 'NONE',  ( 0.0000000000000000000, 0.0000000000000000000, 1.000000000000000000 ) ) ;
#118 = CARTESIAN_POINT ( 'NONE',  ( 0.0000000000000000000, 0.0000000000000000000, 1.000000000000000000 ) ) ;
#119 = APPLICATION_PROTOCOL_DEFINITION ( 'international standard', 'config_control_design', 1994, #6 ) ;
#120 = CIRCLE ( 'NONE', #169, 12.50000000000000000 ) ;
#121 = FACE_OUTER_BOUND ( 'NONE', #22, .T. ) ;
#122 = CARTESIAN_POINT ( 'NONE',  ( 0.0000000000000000000, 0.0000000000000000000, 1.000000000000000000 ) ) ;
#123 = COORDINATED_UNIVERSAL_TIME_OFFSET ( 7, 0, .BEHIND. ) ;
#124 = ORIENTED_EDGE ( 'NONE', *, *, #24, .F. ) ;
#125 = APPROVAL_PERSON_ORGANIZATION ( #88, #28, #106 ) ;
#126 = APPROVAL_STATUS ( 'not_yet_approved' ) ;
#127 = PERSON_AND_ORGANIZATION ( #110, #60 ) ;
#128 = LOCAL_TIME ( 13, 26, 14.00000000000000000, #123 ) ;
#129 = PRODUCT ( 'step_35942', 'step_35942', '', ( #2 ) ) ;
#130 = LINE ( 'NONE', #57, #45 ) ;
#131 = DIRECTION ( 'NONE',  ( 0.0000000000000000000, 0.0000000000000000000, 1.000000000000000000 ) ) ;
#132 = APPLICATION_CONTEXT ( 'configuration controlled 3d designs of mechanical parts and assemblies' ) ;
#133 = CARTESIAN_POINT ( 'NONE',  ( 0.0000000000000000000, 0.0000000000000000000, 1.000000000000000000 ) ) ;
#134 = DIRECTION ( 'NONE',  ( 1.000000000000000000, 0.0000000000000000000, 0.0000000000000000000 ) ) ;
#135 = PLANE ( 'NONE',  #26 ) ;
#136 = PERSON_AND_ORGANIZATION ( #110, #60 ) ;
#137 = PERSON_AND_ORGANIZATION_ROLE ( 'design_owner' ) ;
#138 = EDGE_CURVE ( 'NONE', #149, #150, #130, .T. ) ;
#139 = ORIENTED_EDGE ( 'NONE', *, *, #138, .F. ) ;
#140 = ORIENTED_EDGE ( 'NONE', *, *, #158, .T. ) ;
#141 = ORIENTED_EDGE ( 'NONE', *, *, #116, .T. ) ;
#142 = EDGE_LOOP ( 'NONE', ( #46, #148, #156, #141 ) ) ;
#143 = FACE_OUTER_BOUND ( 'NONE', #157, .T. ) ;
#144 = AXIS2_PLACEMENT_3D ( 'NONE', #133, #1, #86 ) ;
#145 =( NAMED_UNIT ( * ) SI_UNIT ( $, .STERADIAN. ) SOLID_ANGLE_UNIT ( ) );
#146 = DIRECTION ( 'NONE',  ( 0.0000000000000000000, 0.0000000000000000000, 1.000000000000000000 ) ) ;
#147 = DIRECTION ( 'NONE',  ( 1.000000000000000000, 0.0000000000000000000, -0.0000000000000000000 ) ) ;
#148 = ORIENTED_EDGE ( 'NONE', *, *, #41, .F. ) ;
#149 = VERTEX_POINT ( 'NONE', #16 ) ;
#150 = VERTEX_POINT ( 'NONE', #8 ) ;
#151 = UNCERTAINTY_MEASURE_WITH_UNIT (LENGTH_MEASURE( 1.000000000000000100E-005 ), #99, 'distance_accuracy_value', 'NONE');
#152 = CARTESIAN_POINT ( 'NONE',  ( 12.50000000000000000, 1.530808498934191500E-015, 1.000000000000000000 ) ) ;
#153 = DIRECTION ( 'NONE',  ( 0.0000000000000000000, 0.0000000000000000000, 1.000000000000000000 ) ) ;
#154 = ORIENTED_EDGE ( 'NONE', *, *, #116, .F. ) ;
#155 = CLOSED_SHELL ( 'NONE', ( #78, #103, #79, #100 ) ) ;
#156 = ORIENTED_EDGE ( 'NONE', *, *, #138, .T. ) ;
#157 = EDGE_LOOP ( 'NONE', ( #154, #80 ) ) ;
#158 = EDGE_CURVE ( 'NONE', #23, #150, #55, .T. ) ;
#159 = PERSON_AND_ORGANIZATION_ROLE ( 'classification_officer' ) ;
#160 = DIRECTION ( 'NONE',  ( 1.000000000000000000, 0.0000000000000000000, 0.0000000000000000000 ) ) ;
#161 = DATE_AND_TIME ( #37, #128 ) ;
#162 = FACE_OUTER_BOUND ( 'NONE', #142, .T. ) ;
#163 = LINE ( 'NONE', #107, #92 ) ;
#164 = DATE_AND_TIME ( #174, #167 ) ;
#165 = APPROVAL_ROLE ( '' ) ;
#166 = DIRECTION ( 'NONE',  ( -0.0000000000000000000, -0.0000000000000000000, -1.000000000000000000 ) ) ;
#167 = LOCAL_TIME ( 13, 26, 14.00000000000000000, #73 ) ;
#168 = AXIS2_PLACEMENT_3D ( 'NONE', #9, #25, #160 ) ;
#169 = AXIS2_PLACEMENT_3D ( 'NONE', #122, #71, #134 ) ;
#170 =( GEOMETRIC_REPRESENTATION_CONTEXT ( 3 ) GLOBAL_UNCERTAINTY_ASSIGNED_CONTEXT ( ( #151 ) ) GLOBAL_UNIT_ASSIGNED_CONTEXT ( ( #99, #82, #145 ) ) REPRESENTATION_CONTEXT ( 'NONE', 'WORKASPACE' ) );
#171 = DATE_TIME_ROLE ( 'classification_date' ) ;
#172 = DIRECTION ( 'NONE',  ( -1.000000000000000000, 0.0000000000000000000, 0.0000000000000000000 ) ) ;
#173 = CIRCLE ( 'NONE', #144, 12.50000000000000000 ) ;
#174 = CALENDAR_DATE ( 2017, 22, 5 ) ;
#175 = DIRECTION ( 'NONE',  ( -1.000000000000000000, 0.0000000000000000000, 0.0000000000000000000 ) ) ;
ENDSEC;
END-ISO-10303-21;
