ISO-10303-21;
HEADER;
FILE_DESCRIPTION (( 'STEP AP203' ),
    '1' );
FILE_NAME ('Web Model 15467_15472.step',
    '2020-08-11T20:42:40',
    ( '' ),
    ( '' ),
    'SwSTEP 2.0',
    'SolidWorks 2018',
    '' );
FILE_SCHEMA (( 'CONFIG_CONTROL_DESIGN' ));
ENDSEC;

DATA;
#1 = PRODUCT_DEFINITION_FORMATION_WITH_SPECIFIED_SOURCE ( 'ANY', '', #98, .NOT_KNOWN. ) ;
#2 = PERSON_AND_ORGANIZATION ( #173, #157 ) ;
#3 = PRODUCT_DEFINITION ( 'UNKNOWN', '', #1, #161 ) ;
#4 = VERTEX_POINT ( 'NONE', #116 ) ;
#5 = CC_DESIGN_APPROVAL ( #172, ( #1 ) ) ;
#6 = VERTEX_POINT ( 'NONE', #128 ) ;
#7 = AXIS2_PLACEMENT_3D ( 'NONE', #155, #170, #140 ) ;
#8 =( NAMED_UNIT ( * ) PLANE_ANGLE_UNIT ( ) SI_UNIT ( $, .RADIAN. ) );
#9 = PERSON_AND_ORGANIZATION ( #173, #157 ) ;
#10 = DIRECTION ( 'NONE',  ( 1.000000000000000000, 0.0000000000000000000, 0.0000000000000000000 ) ) ;
#11 = CARTESIAN_POINT ( 'NONE',  ( 25.00000000000000000, 3.061616997868383043E-15, 1.500000000000000000 ) ) ;
#12 = CARTESIAN_POINT ( 'NONE',  ( 0.0000000000000000000, 0.0000000000000000000, -1.500000000000000000 ) ) ;
#13 = PERSON_AND_ORGANIZATION ( #173, #157 ) ;
#14 = ADVANCED_FACE ( 'NONE', ( #133 ), #149, .F. ) ;
#15 = AXIS2_PLACEMENT_3D ( 'NONE', #95, #103, #55 ) ;
#16 = SECURITY_CLASSIFICATION ( '', '', #136 ) ;
#17 = FACE_OUTER_BOUND ( 'NONE', #44, .T. ) ;
#18 = ADVANCED_BREP_SHAPE_REPRESENTATION ( 'Web Model 15467_15472', ( #115, #160 ), #120 ) ;
#19 = CC_DESIGN_PERSON_AND_ORGANIZATION_ASSIGNMENT ( #83, #59, ( #1 ) ) ;
#20 = CALENDAR_DATE ( 2020, 11, 8 ) ;
#21 = APPROVAL_PERSON_ORGANIZATION ( #61, #172, #70 ) ;
#22 = DIRECTION ( 'NONE',  ( 1.000000000000000000, 0.0000000000000000000, -0.0000000000000000000 ) ) ;
#23 = CIRCLE ( 'NONE', #123, 25.00000000000000000 ) ;
#24 = ORIENTED_EDGE ( 'NONE', *, *, #45, .T. ) ;
#25 = EDGE_CURVE ( 'NONE', #6, #174, #127, .T. ) ;
#26 = MECHANICAL_CONTEXT ( 'NONE', #104, 'mechanical' ) ;
#27 = CARTESIAN_POINT ( 'NONE',  ( 0.0000000000000000000, 0.0000000000000000000, 1.500000000000000000 ) ) ;
#28 = APPLICATION_PROTOCOL_DEFINITION ( 'international standard', 'config_control_design', 1994, #37 ) ;
#29 = ORIENTED_EDGE ( 'NONE', *, *, #45, .F. ) ;
#30 = CC_DESIGN_APPROVAL ( #153, ( #16 ) ) ;
#31 = LOCAL_TIME ( 16, 42, 40.00000000000000000, #101 ) ;
#32 = LOCAL_TIME ( 16, 42, 40.00000000000000000, #114 ) ;
#33 = AXIS2_PLACEMENT_3D ( 'NONE', #27, #132, #130 ) ;
#34 = EDGE_CURVE ( 'NONE', #6, #76, #35, .T. ) ;
#35 = CIRCLE ( 'NONE', #138, 25.00000000000000000 ) ;
#36 = APPROVAL_PERSON_ORGANIZATION ( #9, #153, #146 ) ;
#37 = APPLICATION_CONTEXT ( 'configuration controlled 3d designs of mechanical parts and assemblies' ) ;
#38 = CALENDAR_DATE ( 2020, 11, 8 ) ;
#39 = CARTESIAN_POINT ( 'NONE',  ( 25.00000000000000000, 3.061616997868383043E-15, 1.500000000000000000 ) ) ;
#40 = DIRECTION ( 'NONE',  ( 1.000000000000000000, 0.0000000000000000000, 0.0000000000000000000 ) ) ;
#41 = CARTESIAN_POINT ( 'NONE',  ( -25.00000000000000000, 0.0000000000000000000, 1.500000000000000000 ) ) ;
#42 = ORIENTED_EDGE ( 'NONE', *, *, #148, .F. ) ;
#43 = CARTESIAN_POINT ( 'NONE',  ( 0.0000000000000000000, 0.0000000000000000000, 0.0000000000000000000 ) ) ;
#44 = EDGE_LOOP ( 'NONE', ( #143, #47, #24, #107 ) ) ;
#45 = EDGE_CURVE ( 'NONE', #4, #174, #124, .T. ) ;
#46 = PERSON_AND_ORGANIZATION ( #173, #157 ) ;
#47 = ORIENTED_EDGE ( 'NONE', *, *, #148, .T. ) ;
#48 = CC_DESIGN_PERSON_AND_ORGANIZATION_ASSIGNMENT ( #2, #159, ( #3 ) ) ;
#49 = DATE_AND_TIME ( #20, #117 ) ;
#50 = CC_DESIGN_DATE_AND_TIME_ASSIGNMENT ( #141, #99, ( #3 ) ) ;
#51 = DIRECTION ( 'NONE',  ( -0.0000000000000000000, -0.0000000000000000000, -1.000000000000000000 ) ) ;
#52 = EDGE_CURVE ( 'NONE', #174, #4, #60, .T. ) ;
#53 = AXIS2_PLACEMENT_3D ( 'NONE', #12, #126, #40 ) ;
#54 = ORIENTED_EDGE ( 'NONE', *, *, #25, .T. ) ;
#55 = DIRECTION ( 'NONE',  ( -1.000000000000000000, 0.0000000000000000000, 0.0000000000000000000 ) ) ;
#56 = LOCAL_TIME ( 16, 42, 40.00000000000000000, #122 ) ;
#57 =( LENGTH_UNIT ( ) NAMED_UNIT ( * ) SI_UNIT ( .MILLI., .METRE. ) );
#58 = PERSON_AND_ORGANIZATION_ROLE ( 'creator' ) ;
#59 = PERSON_AND_ORGANIZATION_ROLE ( 'design_supplier' ) ;
#60 = CIRCLE ( 'NONE', #7, 25.00000000000000000 ) ;
#61 = PERSON_AND_ORGANIZATION ( #173, #157 ) ;
#62 = ORIENTED_EDGE ( 'NONE', *, *, #135, .T. ) ;
#63 = CALENDAR_DATE ( 2020, 11, 8 ) ;
#64 = CC_DESIGN_PERSON_AND_ORGANIZATION_ASSIGNMENT ( #108, #58, ( #1 ) ) ;
#65 = LINE ( 'NONE', #11, #171 ) ;
#66 = LOCAL_TIME ( 16, 42, 40.00000000000000000, #162 ) ;
#67 =( NAMED_UNIT ( * ) SI_UNIT ( $, .STERADIAN. ) SOLID_ANGLE_UNIT ( ) );
#68 = DIRECTION ( 'NONE',  ( 0.0000000000000000000, 0.0000000000000000000, 1.000000000000000000 ) ) ;
#69 = ADVANCED_FACE ( 'NONE', ( #17 ), #89, .T. ) ;
#70 = APPROVAL_ROLE ( '' ) ;
#71 = PERSON_AND_ORGANIZATION_ROLE ( 'classification_officer' ) ;
#72 = APPROVAL_STATUS ( 'not_yet_approved' ) ;
#73 = APPROVAL_DATE_TIME ( #49, #153 ) ;
#74 = ORIENTED_EDGE ( 'NONE', *, *, #52, .T. ) ;
#75 = APPROVAL_DATE_TIME ( #87, #172 ) ;
#76 = VERTEX_POINT ( 'NONE', #39 ) ;
#77 = DIRECTION ( 'NONE',  ( 1.000000000000000000, 0.0000000000000000000, 0.0000000000000000000 ) ) ;
#78 = APPROVAL_PERSON_ORGANIZATION ( #46, #131, #84 ) ;
#79 = PERSON_AND_ORGANIZATION_ROLE ( 'design_owner' ) ;
#80 = DIRECTION ( 'NONE',  ( 0.0000000000000000000, 0.0000000000000000000, 1.000000000000000000 ) ) ;
#81 = AXIS2_PLACEMENT_3D ( 'NONE', #112, #105, #168 ) ;
#82 = APPROVAL_STATUS ( 'not_yet_approved' ) ;
#83 = PERSON_AND_ORGANIZATION ( #173, #157 ) ;
#84 = APPROVAL_ROLE ( '' ) ;
#85 = PRODUCT_RELATED_PRODUCT_CATEGORY ( 'detail', '', ( #98 ) ) ;
#86 = UNCERTAINTY_MEASURE_WITH_UNIT (LENGTH_MEASURE( 1.000000000000000082E-05 ), #57, 'distance_accuracy_value', 'NONE');
#87 = DATE_AND_TIME ( #121, #66 ) ;
#88 = DIRECTION ( 'NONE',  ( 0.0000000000000000000, 0.0000000000000000000, 1.000000000000000000 ) ) ;
#89 = CYLINDRICAL_SURFACE ( 'NONE', #15, 25.00000000000000000 ) ;
#90 = DATE_AND_TIME ( #38, #56 ) ;
#91 = CARTESIAN_POINT ( 'NONE',  ( 0.0000000000000000000, 0.0000000000000000000, 1.500000000000000000 ) ) ;
#92 = SHAPE_DEFINITION_REPRESENTATION ( #119, #18 ) ;
#93 = DIRECTION ( 'NONE',  ( 1.000000000000000000, 0.0000000000000000000, 0.0000000000000000000 ) ) ;
#94 = ADVANCED_FACE ( 'NONE', ( #164 ), #96, .T. ) ;
#95 = CARTESIAN_POINT ( 'NONE',  ( 0.0000000000000000000, 0.0000000000000000000, 1.500000000000000000 ) ) ;
#96 = PLANE ( 'NONE',  #81 ) ;
#97 = ORIENTED_EDGE ( 'NONE', *, *, #52, .F. ) ;
#98 = PRODUCT ( 'Web Model 15467_15472', 'Web Model 15467_15472', '', ( #26 ) ) ;
#99 = DATE_TIME_ROLE ( 'creation_date' ) ;
#100 = CC_DESIGN_DATE_AND_TIME_ASSIGNMENT ( #90, #134, ( #16 ) ) ;
#101 = COORDINATED_UNIVERSAL_TIME_OFFSET ( 5, 0, .BEHIND. ) ;
#102 = DIRECTION ( 'NONE',  ( -0.0000000000000000000, -0.0000000000000000000, -1.000000000000000000 ) ) ;
#103 = DIRECTION ( 'NONE',  ( -0.0000000000000000000, -0.0000000000000000000, -1.000000000000000000 ) ) ;
#104 = APPLICATION_CONTEXT ( 'configuration controlled 3d designs of mechanical parts and assemblies' ) ;
#105 = DIRECTION ( 'NONE',  ( 0.0000000000000000000, 0.0000000000000000000, 1.000000000000000000 ) ) ;
#106 = CARTESIAN_POINT ( 'NONE',  ( -25.00000000000000000, 0.0000000000000000000, -1.500000000000000000 ) ) ;
#107 = ORIENTED_EDGE ( 'NONE', *, *, #25, .F. ) ;
#108 = PERSON_AND_ORGANIZATION ( #173, #157 ) ;
#109 = EDGE_LOOP ( 'NONE', ( #110, #62 ) ) ;
#110 = ORIENTED_EDGE ( 'NONE', *, *, #34, .T. ) ;
#111 = EDGE_LOOP ( 'NONE', ( #42, #144, #54, #74 ) ) ;
#112 = CARTESIAN_POINT ( 'NONE',  ( 0.0000000000000000000, 0.0000000000000000000, 1.500000000000000000 ) ) ;
#113 = VECTOR ( 'NONE', #51, 1000.000000000000000 ) ;
#114 = COORDINATED_UNIVERSAL_TIME_OFFSET ( 5, 0, .BEHIND. ) ;
#115 = MANIFOLD_SOLID_BREP ( 'Boss-Extrude1', #147 ) ;
#116 = CARTESIAN_POINT ( 'NONE',  ( 25.00000000000000000, 3.061616997868383043E-15, -1.500000000000000000 ) ) ;
#117 = LOCAL_TIME ( 16, 42, 40.00000000000000000, #137 ) ;
#118 = ADVANCED_FACE ( 'NONE', ( #142 ), #167, .T. ) ;
#119 = PRODUCT_DEFINITION_SHAPE ( 'NONE', 'NONE',  #3 ) ;
#120 =( GEOMETRIC_REPRESENTATION_CONTEXT ( 3 ) GLOBAL_UNCERTAINTY_ASSIGNED_CONTEXT ( ( #86 ) ) GLOBAL_UNIT_ASSIGNED_CONTEXT ( ( #57, #8, #67 ) ) REPRESENTATION_CONTEXT ( 'NONE', 'WORKASPACE' ) );
#121 = CALENDAR_DATE ( 2020, 11, 8 ) ;
#122 = COORDINATED_UNIVERSAL_TIME_OFFSET ( 5, 0, .BEHIND. ) ;
#123 = AXIS2_PLACEMENT_3D ( 'NONE', #152, #80, #93 ) ;
#124 = CIRCLE ( 'NONE', #53, 25.00000000000000000 ) ;
#125 = CALENDAR_DATE ( 2020, 11, 8 ) ;
#126 = DIRECTION ( 'NONE',  ( 0.0000000000000000000, 0.0000000000000000000, 1.000000000000000000 ) ) ;
#127 = LINE ( 'NONE', #41, #113 ) ;
#128 = CARTESIAN_POINT ( 'NONE',  ( -25.00000000000000000, 0.0000000000000000000, 1.500000000000000000 ) ) ;
#129 = DATE_AND_TIME ( #63, #32 ) ;
#130 = DIRECTION ( 'NONE',  ( -1.000000000000000000, 0.0000000000000000000, 0.0000000000000000000 ) ) ;
#131 = APPROVAL ( #82, 'UNSPECIFIED' ) ;
#132 = DIRECTION ( 'NONE',  ( -0.0000000000000000000, -0.0000000000000000000, -1.000000000000000000 ) ) ;
#133 = FACE_OUTER_BOUND ( 'NONE', #175, .T. ) ;
#134 = DATE_TIME_ROLE ( 'classification_date' ) ;
#135 = EDGE_CURVE ( 'NONE', #76, #6, #23, .T. ) ;
#136 = SECURITY_CLASSIFICATION_LEVEL ( 'unclassified' ) ;
#137 = COORDINATED_UNIVERSAL_TIME_OFFSET ( 5, 0, .BEHIND. ) ;
#138 = AXIS2_PLACEMENT_3D ( 'NONE', #91, #68, #10 ) ;
#139 = CC_DESIGN_PERSON_AND_ORGANIZATION_ASSIGNMENT ( #154, #71, ( #16 ) ) ;
#140 = DIRECTION ( 'NONE',  ( 1.000000000000000000, 0.0000000000000000000, 0.0000000000000000000 ) ) ;
#141 = DATE_AND_TIME ( #125, #31 ) ;
#142 = FACE_OUTER_BOUND ( 'NONE', #111, .T. ) ;
#143 = ORIENTED_EDGE ( 'NONE', *, *, #135, .F. ) ;
#144 = ORIENTED_EDGE ( 'NONE', *, *, #34, .F. ) ;
#145 = CC_DESIGN_PERSON_AND_ORGANIZATION_ASSIGNMENT ( #13, #79, ( #98 ) ) ;
#146 = APPROVAL_ROLE ( '' ) ;
#147 = CLOSED_SHELL ( 'NONE', ( #69, #118, #94, #14 ) ) ;
#148 = EDGE_CURVE ( 'NONE', #76, #4, #65, .T. ) ;
#149 = PLANE ( 'NONE',  #166 ) ;
#150 = DIRECTION ( 'NONE',  ( 0.0000000000000000000, 0.0000000000000000000, 1.000000000000000000 ) ) ;
#151 = APPLICATION_PROTOCOL_DEFINITION ( 'international standard', 'config_control_design', 1994, #104 ) ;
#152 = CARTESIAN_POINT ( 'NONE',  ( 0.0000000000000000000, 0.0000000000000000000, 1.500000000000000000 ) ) ;
#153 = APPROVAL ( #156, 'UNSPECIFIED' ) ;
#154 = PERSON_AND_ORGANIZATION ( #173, #157 ) ;
#155 = CARTESIAN_POINT ( 'NONE',  ( 0.0000000000000000000, 0.0000000000000000000, -1.500000000000000000 ) ) ;
#156 = APPROVAL_STATUS ( 'not_yet_approved' ) ;
#157 = ORGANIZATION ( 'UNSPECIFIED', 'UNSPECIFIED', '' ) ;
#158 = CC_DESIGN_SECURITY_CLASSIFICATION ( #16, ( #1 ) ) ;
#159 = PERSON_AND_ORGANIZATION_ROLE ( 'creator' ) ;
#160 = AXIS2_PLACEMENT_3D ( 'NONE', #43, #150, #77 ) ;
#161 = DESIGN_CONTEXT ( 'detailed design', #37, 'design' ) ;
#162 = COORDINATED_UNIVERSAL_TIME_OFFSET ( 5, 0, .BEHIND. ) ;
#163 = CC_DESIGN_APPROVAL ( #131, ( #3 ) ) ;
#164 = FACE_OUTER_BOUND ( 'NONE', #109, .T. ) ;
#165 = CARTESIAN_POINT ( 'NONE',  ( 0.0000000000000000000, 0.0000000000000000000, -1.500000000000000000 ) ) ;
#166 = AXIS2_PLACEMENT_3D ( 'NONE', #165, #88, #22 ) ;
#167 = CYLINDRICAL_SURFACE ( 'NONE', #33, 25.00000000000000000 ) ;
#168 = DIRECTION ( 'NONE',  ( 1.000000000000000000, 0.0000000000000000000, -0.0000000000000000000 ) ) ;
#169 = APPROVAL_DATE_TIME ( #129, #131 ) ;
#170 = DIRECTION ( 'NONE',  ( 0.0000000000000000000, 0.0000000000000000000, 1.000000000000000000 ) ) ;
#171 = VECTOR ( 'NONE', #102, 1000.000000000000000 ) ;
#172 = APPROVAL ( #72, 'UNSPECIFIED' ) ;
#173 = PERSON ( 'UNSPECIFIED', 'UNSPECIFIED', 'UNSPECIFIED', ('UNSPECIFIED'), ('UNSPECIFIED'), ('UNSPECIFIED') ) ;
#174 = VERTEX_POINT ( 'NONE', #106 ) ;
#175 = EDGE_LOOP ( 'NONE', ( #97, #29 ) ) ;
ENDSEC;
END-ISO-10303-21;
