ISO-10303-21;
HEADER;
FILE_DESCRIPTION (( 'STEP AP203' ),
    '1' );
FILE_NAME ('Web Model 84485.STEP',
    '2017-02-01T15:50:07',
    ( '' ),
    ( '' ),
    'SwSTEP 2.0',
    'SolidWorks 2016',
    '' );
FILE_SCHEMA (( 'CONFIG_CONTROL_DESIGN' ));
ENDSEC;

DATA;
#1 = COORDINATED_UNIVERSAL_TIME_OFFSET ( 5, 0, .BEHIND. ) ;
#2 = ORIENTED_EDGE ( 'NONE', *, *, #65, .F. ) ;
#3 = DIRECTION ( 'NONE',  ( -1.000000000000000000, -6.938893903907228400E-017, 0.0000000000000000000 ) ) ;
#4 = PERSON_AND_ORGANIZATION ( #168, #121 ) ;
#5 = DIRECTION ( 'NONE',  ( 1.000000000000000000, 6.938893903907228400E-017, -0.0000000000000000000 ) ) ;
#6 = DIRECTION ( 'NONE',  ( -1.000000000000000000, -0.0000000000000000000, -0.0000000000000000000 ) ) ;
#7 = LINE ( 'NONE', #160, #45 ) ;
#8 = DIRECTION ( 'NONE',  ( 1.000000000000000000, 0.0000000000000000000, 0.0000000000000000000 ) ) ;
#9 = LINE ( 'NONE', #144, #50 ) ;
#10 = ORIENTED_EDGE ( 'NONE', *, *, #137, .T. ) ;
#11 = PRODUCT ( 'Web Model 84485', 'Web Model 84485', '', ( #227 ) ) ;
#12 = APPROVAL ( #56, 'UNSPECIFIED' ) ;
#13 = EDGE_CURVE ( 'NONE', #171, #134, #76, .T. ) ;
#14 = CC_DESIGN_SECURITY_CLASSIFICATION ( #167, ( #184 ) ) ;
#15 = PRODUCT_DEFINITION_SHAPE ( 'NONE', 'NONE',  #66 ) ;
#16 = VERTEX_POINT ( 'NONE', #49 ) ;
#17 = CARTESIAN_POINT ( 'NONE',  ( 6.249999999999999100, 6.250000000000000000, 2.000000000000000000 ) ) ;
#18 = ADVANCED_FACE ( 'NONE', ( #105 ), #198, .F. ) ;
#19 = DATE_AND_TIME ( #182, #70 ) ;
#20 = CC_DESIGN_PERSON_AND_ORGANIZATION_ASSIGNMENT ( #4, #208, ( #184 ) ) ;
#21 = DIRECTION ( 'NONE',  ( 6.938893903907228400E-017, -1.000000000000000000, 0.0000000000000000000 ) ) ;
#22 = PERSON_AND_ORGANIZATION ( #168, #121 ) ;
#23 = ORIENTED_EDGE ( 'NONE', *, *, #170, .T. ) ;
#24 = DIRECTION ( 'NONE',  ( 1.000000000000000000, 0.0000000000000000000, 0.0000000000000000000 ) ) ;
#25 = ADVANCED_FACE ( 'NONE', ( #120 ), #140, .F. ) ;
#26 = VECTOR ( 'NONE', #21, 1000.000000000000000 ) ;
#27 = DIRECTION ( 'NONE',  ( -6.938893903907228400E-017, 1.000000000000000000, 0.0000000000000000000 ) ) ;
#28 = ORIENTED_EDGE ( 'NONE', *, *, #13, .F. ) ;
#29 = APPROVAL_ROLE ( '' ) ;
#30 = CALENDAR_DATE ( 2017, 1, 2 ) ;
#31 = VECTOR ( 'NONE', #38, 1000.000000000000000 ) ;
#32 = EDGE_LOOP ( 'NONE', ( #10, #28, #101, #23 ) ) ;
#33 = ORIENTED_EDGE ( 'NONE', *, *, #124, .F. ) ;
#34 = LINE ( 'NONE', #142, #26 ) ;
#35 = DIRECTION ( 'NONE',  ( -0.0000000000000000000, -0.0000000000000000000, -1.000000000000000000 ) ) ;
#36 = EDGE_CURVE ( 'NONE', #78, #207, #119, .T. ) ;
#37 = ADVANCED_FACE ( 'NONE', ( #47 ), #223, .F. ) ;
#38 = DIRECTION ( 'NONE',  ( -0.0000000000000000000, -0.0000000000000000000, -1.000000000000000000 ) ) ;
#39 = LINE ( 'NONE', #41, #147 ) ;
#40 = APPLICATION_CONTEXT ( 'configuration controlled 3d designs of mechanical parts and assemblies' ) ;
#41 = CARTESIAN_POINT ( 'NONE',  ( 6.249999999999999100, 6.250000000000000000, 2.000000000000000000 ) ) ;
#42 = DATE_TIME_ROLE ( 'creation_date' ) ;
#43 = ORIENTED_EDGE ( 'NONE', *, *, #125, .T. ) ;
#44 = MANIFOLD_SOLID_BREP ( 'Extrude1', #189 ) ;
#45 = VECTOR ( 'NONE', #219, 1000.000000000000000 ) ;
#46 = ORIENTED_EDGE ( 'NONE', *, *, #170, .F. ) ;
#47 = FACE_OUTER_BOUND ( 'NONE', #102, .T. ) ;
#48 = CARTESIAN_POINT ( 'NONE',  ( -6.250000000000000000, -6.250000000000000000, 0.0000000000000000000 ) ) ;
#49 = CARTESIAN_POINT ( 'NONE',  ( 6.249999999999999100, 6.250000000000000000, 2.000000000000000000 ) ) ;
#50 = VECTOR ( 'NONE', #161, 1000.000000000000000 ) ;
#51 = DIRECTION ( 'NONE',  ( 0.0000000000000000000, -0.0000000000000000000, 1.000000000000000000 ) ) ;
#52 = FACE_OUTER_BOUND ( 'NONE', #148, .T. ) ;
#53 = CARTESIAN_POINT ( 'NONE',  ( -6.250000000000000900, 6.250000000000000000, 2.000000000000000000 ) ) ;
#54 = APPLICATION_CONTEXT ( 'configuration controlled 3d designs of mechanical parts and assemblies' ) ;
#55 = APPLICATION_PROTOCOL_DEFINITION ( 'international standard', 'config_control_design', 1994, #54 ) ;
#56 = APPROVAL_STATUS ( 'not_yet_approved' ) ;
#57 = ORIENTED_EDGE ( 'NONE', *, *, #130, .T. ) ;
#58 = VECTOR ( 'NONE', #8, 1000.000000000000000 ) ;
#59 = VERTEX_POINT ( 'NONE', #110 ) ;
#60 = ORIENTED_EDGE ( 'NONE', *, *, #125, .F. ) ;
#61 = DATE_AND_TIME ( #71, #213 ) ;
#62 = AXIS2_PLACEMENT_3D ( 'NONE', #53, #226, #94 ) ;
#63 = PLANE ( 'NONE',  #165 ) ;
#64 = FACE_OUTER_BOUND ( 'NONE', #88, .T. ) ;
#65 = EDGE_CURVE ( 'NONE', #134, #79, #169, .T. ) ;
#66 = PRODUCT_DEFINITION ( 'UNKNOWN', '', #184, #193 ) ;
#67 = DIRECTION ( 'NONE',  ( 0.0000000000000000000, 1.000000000000000000, 0.0000000000000000000 ) ) ;
#68 = DIRECTION ( 'NONE',  ( -0.0000000000000000000, 0.0000000000000000000, 1.000000000000000000 ) ) ;
#69 = DATE_AND_TIME ( #75, #84 ) ;
#70 = LOCAL_TIME ( 10, 50, 7.000000000000000000, #234 ) ;
#71 = CALENDAR_DATE ( 2017, 1, 2 ) ;
#72 =( LENGTH_UNIT ( ) NAMED_UNIT ( * ) SI_UNIT ( .MILLI., .METRE. ) );
#73 = APPROVAL_STATUS ( 'not_yet_approved' ) ;
#74 = APPROVAL_ROLE ( '' ) ;
#75 = CALENDAR_DATE ( 2017, 1, 2 ) ;
#76 = LINE ( 'NONE', #156, #100 ) ;
#77 = AXIS2_PLACEMENT_3D ( 'NONE', #141, #67, #51 ) ;
#78 = VERTEX_POINT ( 'NONE', #154 ) ;
#79 = VERTEX_POINT ( 'NONE', #220 ) ;
#80 = APPROVAL_PERSON_ORGANIZATION ( #172, #212, #29 ) ;
#81 = APPROVAL_PERSON_ORGANIZATION ( #22, #12, #74 ) ;
#82 = ORIENTED_EDGE ( 'NONE', *, *, #222, .F. ) ;
#83 = CARTESIAN_POINT ( 'NONE',  ( -6.250000000000000900, 6.250000000000000000, 0.0000000000000000000 ) ) ;
#84 = LOCAL_TIME ( 10, 50, 7.000000000000000000, #1 ) ;
#85 = EDGE_LOOP ( 'NONE', ( #2, #131, #117, #82 ) ) ;
#86 = CARTESIAN_POINT ( 'NONE',  ( 6.249999999999999100, 6.250000000000000000, 0.0000000000000000000 ) ) ;
#87 = ADVANCED_FACE ( 'NONE', ( #158 ), #92, .F. ) ;
#88 = EDGE_LOOP ( 'NONE', ( #145, #33, #127, #106 ) ) ;
#89 =( GEOMETRIC_REPRESENTATION_CONTEXT ( 3 ) GLOBAL_UNCERTAINTY_ASSIGNED_CONTEXT ( ( #228 ) ) GLOBAL_UNIT_ASSIGNED_CONTEXT ( ( #72, #204, #93 ) ) REPRESENTATION_CONTEXT ( 'NONE', 'WORKASPACE' ) );
#90 = DIRECTION ( 'NONE',  ( -6.938893903907228400E-017, 1.000000000000000000, -0.0000000000000000000 ) ) ;
#91 = CARTESIAN_POINT ( 'NONE',  ( -6.250000000000000900, 6.250000000000000000, 2.000000000000000000 ) ) ;
#92 = PLANE ( 'NONE',  #62 ) ;
#93 =( NAMED_UNIT ( * ) SI_UNIT ( $, .STERADIAN. ) SOLID_ANGLE_UNIT ( ) );
#94 = DIRECTION ( 'NONE',  ( 0.0000000000000000000, -0.0000000000000000000, -1.000000000000000000 ) ) ;
#95 = DATE_AND_TIME ( #187, #99 ) ;
#96 = DIRECTION ( 'NONE',  ( -6.938893903907228400E-017, 1.000000000000000000, -0.0000000000000000000 ) ) ;
#97 = PERSON_AND_ORGANIZATION_ROLE ( 'design_supplier' ) ;
#98 = LINE ( 'NONE', #122, #194 ) ;
#99 = LOCAL_TIME ( 10, 50, 7.000000000000000000, #200 ) ;
#100 = VECTOR ( 'NONE', #181, 1000.000000000000000 ) ;
#101 = ORIENTED_EDGE ( 'NONE', *, *, #210, .F. ) ;
#102 = EDGE_LOOP ( 'NONE', ( #139, #46, #214, #195 ) ) ;
#103 = CARTESIAN_POINT ( 'NONE',  ( -6.250000000000000900, 6.250000000000000000, 0.0000000000000000000 ) ) ;
#104 = AXIS2_PLACEMENT_3D ( 'NONE', #48, #68, #24 ) ;
#105 = FACE_OUTER_BOUND ( 'NONE', #123, .T. ) ;
#106 = ORIENTED_EDGE ( 'NONE', *, *, #13, .T. ) ;
#107 = CC_DESIGN_PERSON_AND_ORGANIZATION_ASSIGNMENT ( #235, #97, ( #184 ) ) ;
#108 = CARTESIAN_POINT ( 'NONE',  ( 6.249999999999999100, 6.250000000000000000, 2.000000000000000000 ) ) ;
#109 = APPROVAL_DATE_TIME ( #61, #12 ) ;
#110 = CARTESIAN_POINT ( 'NONE',  ( 6.250000000000000000, -6.250000000000000000, 2.000000000000000000 ) ) ;
#111 = PLANE ( 'NONE',  #201 ) ;
#112 = PERSON_AND_ORGANIZATION_ROLE ( 'design_owner' ) ;
#113 = ORIENTED_EDGE ( 'NONE', *, *, #210, .T. ) ;
#114 = ADVANCED_FACE ( 'NONE', ( #64 ), #111, .F. ) ;
#115 = DATE_TIME_ROLE ( 'classification_date' ) ;
#116 = COORDINATED_UNIVERSAL_TIME_OFFSET ( 5, 0, .BEHIND. ) ;
#117 = ORIENTED_EDGE ( 'NONE', *, *, #36, .F. ) ;
#118 = PERSON_AND_ORGANIZATION ( #168, #121 ) ;
#119 = LINE ( 'NONE', #86, #202 ) ;
#120 = FACE_OUTER_BOUND ( 'NONE', #85, .T. ) ;
#121 = ORGANIZATION ( 'UNSPECIFIED', 'UNSPECIFIED', '' ) ;
#122 = CARTESIAN_POINT ( 'NONE',  ( -6.250000000000000900, 6.250000000000000000, 2.000000000000000000 ) ) ;
#123 = EDGE_LOOP ( 'NONE', ( #232, #197, #60, #135 ) ) ;
#124 = EDGE_CURVE ( 'NONE', #190, #79, #155, .T. ) ;
#125 = EDGE_CURVE ( 'NONE', #190, #59, #211, .T. ) ;
#126 = APPROVAL_STATUS ( 'not_yet_approved' ) ;
#127 = ORIENTED_EDGE ( 'NONE', *, *, #130, .F. ) ;
#128 = PERSON_AND_ORGANIZATION_ROLE ( 'classification_officer' ) ;
#129 = DATE_AND_TIME ( #30, #176 ) ;
#130 = EDGE_CURVE ( 'NONE', #171, #190, #34, .T. ) ;
#131 = ORIENTED_EDGE ( 'NONE', *, *, #137, .F. ) ;
#132 = DIRECTION ( 'NONE',  ( 1.000000000000000000, 0.0000000000000000000, 0.0000000000000000000 ) ) ;
#133 = CC_DESIGN_PERSON_AND_ORGANIZATION_ASSIGNMENT ( #138, #112, ( #11 ) ) ;
#134 = VERTEX_POINT ( 'NONE', #152 ) ;
#135 = ORIENTED_EDGE ( 'NONE', *, *, #124, .T. ) ;
#136 = ADVANCED_FACE ( 'NONE', ( #52 ), #63, .T. ) ;
#137 = EDGE_CURVE ( 'NONE', #207, #134, #188, .T. ) ;
#138 = PERSON_AND_ORGANIZATION ( #168, #121 ) ;
#139 = ORIENTED_EDGE ( 'NONE', *, *, #36, .T. ) ;
#140 = PLANE ( 'NONE',  #104 ) ;
#141 = CARTESIAN_POINT ( 'NONE',  ( -6.250000000000000000, -6.250000000000000000, 2.000000000000000000 ) ) ;
#142 = CARTESIAN_POINT ( 'NONE',  ( -6.250000000000000900, 6.250000000000000000, 2.000000000000000000 ) ) ;
#143 = CARTESIAN_POINT ( 'NONE',  ( -6.250000000000000000, -6.250000000000000000, 2.000000000000000000 ) ) ;
#144 = CARTESIAN_POINT ( 'NONE',  ( -6.250000000000000000, -6.250000000000000000, 0.0000000000000000000 ) ) ;
#145 = ORIENTED_EDGE ( 'NONE', *, *, #65, .T. ) ;
#146 = EDGE_CURVE ( 'NONE', #59, #78, #7, .T. ) ;
#147 = VECTOR ( 'NONE', #96, 1000.000000000000000 ) ;
#148 = EDGE_LOOP ( 'NONE', ( #57, #43, #174, #113 ) ) ;
#149 = CC_DESIGN_APPROVAL ( #212, ( #66 ) ) ;
#150 = SHAPE_DEFINITION_REPRESENTATION ( #15, #157 ) ;
#151 = CARTESIAN_POINT ( 'NONE',  ( -6.250000000000000900, 6.250000000000000000, 2.000000000000000000 ) ) ;
#152 = CARTESIAN_POINT ( 'NONE',  ( -6.250000000000000900, 6.250000000000000000, 0.0000000000000000000 ) ) ;
#153 = CC_DESIGN_APPROVAL ( #12, ( #184 ) ) ;
#154 = CARTESIAN_POINT ( 'NONE',  ( 6.250000000000000000, -6.250000000000000000, 0.0000000000000000000 ) ) ;
#155 = LINE ( 'NONE', #162, #31 ) ;
#156 = CARTESIAN_POINT ( 'NONE',  ( -6.250000000000000900, 6.250000000000000000, 2.000000000000000000 ) ) ;
#157 = ADVANCED_BREP_SHAPE_REPRESENTATION ( 'Web Model 84485', ( #44, #179 ), #89 ) ;
#158 = FACE_OUTER_BOUND ( 'NONE', #32, .T. ) ;
#159 = CC_DESIGN_DATE_AND_TIME_ASSIGNMENT ( #95, #42, ( #66 ) ) ;
#160 = CARTESIAN_POINT ( 'NONE',  ( 6.250000000000000000, -6.250000000000000000, 2.000000000000000000 ) ) ;
#161 = DIRECTION ( 'NONE',  ( 1.000000000000000000, 0.0000000000000000000, 0.0000000000000000000 ) ) ;
#162 = CARTESIAN_POINT ( 'NONE',  ( -6.250000000000000000, -6.250000000000000000, 2.000000000000000000 ) ) ;
#163 = DIRECTION ( 'NONE',  ( 1.000000000000000000, 0.0000000000000000000, 0.0000000000000000000 ) ) ;
#164 = CARTESIAN_POINT ( 'NONE',  ( 0.0000000000000000000, 0.0000000000000000000, 0.0000000000000000000 ) ) ;
#165 = AXIS2_PLACEMENT_3D ( 'NONE', #236, #173, #132 ) ;
#166 = PERSON_AND_ORGANIZATION_ROLE ( 'creator' ) ;
#167 = SECURITY_CLASSIFICATION ( '', '', #229 ) ;
#168 = PERSON ( 'UNSPECIFIED', 'UNSPECIFIED', 'UNSPECIFIED', ('UNSPECIFIED'), ('UNSPECIFIED'), ('UNSPECIFIED') ) ;
#169 = LINE ( 'NONE', #83, #216 ) ;
#170 = EDGE_CURVE ( 'NONE', #16, #207, #231, .T. ) ;
#171 = VERTEX_POINT ( 'NONE', #151 ) ;
#172 = PERSON_AND_ORGANIZATION ( #168, #121 ) ;
#173 = DIRECTION ( 'NONE',  ( -0.0000000000000000000, 0.0000000000000000000, 1.000000000000000000 ) ) ;
#174 = ORIENTED_EDGE ( 'NONE', *, *, #206, .T. ) ;
#175 = CC_DESIGN_DATE_AND_TIME_ASSIGNMENT ( #129, #115, ( #167 ) ) ;
#176 = LOCAL_TIME ( 10, 50, 7.000000000000000000, #230 ) ;
#177 = DIRECTION ( 'NONE',  ( -1.000000000000000000, -0.0000000000000000000, -0.0000000000000000000 ) ) ;
#178 = VECTOR ( 'NONE', #35, 1000.000000000000000 ) ;
#179 = AXIS2_PLACEMENT_3D ( 'NONE', #164, #185, #163 ) ;
#180 = PRODUCT_RELATED_PRODUCT_CATEGORY ( 'detail', '', ( #11 ) ) ;
#181 = DIRECTION ( 'NONE',  ( -0.0000000000000000000, -0.0000000000000000000, -1.000000000000000000 ) ) ;
#182 = CALENDAR_DATE ( 2017, 1, 2 ) ;
#183 = VECTOR ( 'NONE', #177, 1000.000000000000000 ) ;
#184 = PRODUCT_DEFINITION_FORMATION_WITH_SPECIFIED_SOURCE ( 'ANY', '', #11, .NOT_KNOWN. ) ;
#185 = DIRECTION ( 'NONE',  ( 0.0000000000000000000, 0.0000000000000000000, 1.000000000000000000 ) ) ;
#186 = APPLICATION_PROTOCOL_DEFINITION ( 'international standard', 'config_control_design', 1994, #40 ) ;
#187 = CALENDAR_DATE ( 2017, 1, 2 ) ;
#188 = LINE ( 'NONE', #103, #183 ) ;
#189 = CLOSED_SHELL ( 'NONE', ( #114, #18, #37, #87, #136, #25 ) ) ;
#190 = VERTEX_POINT ( 'NONE', #225 ) ;
#191 = APPROVAL ( #126, 'UNSPECIFIED' ) ;
#192 = AXIS2_PLACEMENT_3D ( 'NONE', #108, #3, #199 ) ;
#193 = DESIGN_CONTEXT ( 'detailed design', #40, 'design' ) ;
#194 = VECTOR ( 'NONE', #6, 1000.000000000000000 ) ;
#195 = ORIENTED_EDGE ( 'NONE', *, *, #146, .T. ) ;
#196 = DIRECTION ( 'NONE',  ( 6.938893903907228400E-017, -1.000000000000000000, 0.0000000000000000000 ) ) ;
#197 = ORIENTED_EDGE ( 'NONE', *, *, #146, .F. ) ;
#198 = PLANE ( 'NONE',  #77 ) ;
#199 = DIRECTION ( 'NONE',  ( 6.938893903907228400E-017, -1.000000000000000000, 0.0000000000000000000 ) ) ;
#200 = COORDINATED_UNIVERSAL_TIME_OFFSET ( 5, 0, .BEHIND. ) ;
#201 = AXIS2_PLACEMENT_3D ( 'NONE', #91, #5, #27 ) ;
#202 = VECTOR ( 'NONE', #90, 1000.000000000000000 ) ;
#203 = APPROVAL_DATE_TIME ( #19, #191 ) ;
#204 =( NAMED_UNIT ( * ) PLANE_ANGLE_UNIT ( ) SI_UNIT ( $, .RADIAN. ) );
#205 = CARTESIAN_POINT ( 'NONE',  ( 6.249999999999999100, 6.250000000000000000, 0.0000000000000000000 ) ) ;
#206 = EDGE_CURVE ( 'NONE', #59, #16, #39, .T. ) ;
#207 = VERTEX_POINT ( 'NONE', #205 ) ;
#208 = PERSON_AND_ORGANIZATION_ROLE ( 'creator' ) ;
#209 = APPROVAL_ROLE ( '' ) ;
#210 = EDGE_CURVE ( 'NONE', #16, #171, #98, .T. ) ;
#211 = LINE ( 'NONE', #143, #58 ) ;
#212 = APPROVAL ( #73, 'UNSPECIFIED' ) ;
#213 = LOCAL_TIME ( 10, 50, 7.000000000000000000, #116 ) ;
#214 = ORIENTED_EDGE ( 'NONE', *, *, #206, .F. ) ;
#215 = PERSON_AND_ORGANIZATION ( #168, #121 ) ;
#216 = VECTOR ( 'NONE', #196, 1000.000000000000000 ) ;
#217 = APPROVAL_PERSON_ORGANIZATION ( #118, #191, #209 ) ;
#218 = CC_DESIGN_APPROVAL ( #191, ( #167 ) ) ;
#219 = DIRECTION ( 'NONE',  ( -0.0000000000000000000, -0.0000000000000000000, -1.000000000000000000 ) ) ;
#220 = CARTESIAN_POINT ( 'NONE',  ( -6.250000000000000000, -6.250000000000000000, 0.0000000000000000000 ) ) ;
#221 = APPROVAL_DATE_TIME ( #69, #212 ) ;
#222 = EDGE_CURVE ( 'NONE', #79, #78, #9, .T. ) ;
#223 = PLANE ( 'NONE',  #192 ) ;
#224 = PERSON_AND_ORGANIZATION ( #168, #121 ) ;
#225 = CARTESIAN_POINT ( 'NONE',  ( -6.250000000000000000, -6.250000000000000000, 2.000000000000000000 ) ) ;
#226 = DIRECTION ( 'NONE',  ( 0.0000000000000000000, -1.000000000000000000, 0.0000000000000000000 ) ) ;
#227 = MECHANICAL_CONTEXT ( 'NONE', #54, 'mechanical' ) ;
#228 = UNCERTAINTY_MEASURE_WITH_UNIT (LENGTH_MEASURE( 1.000000000000000100E-005 ), #72, 'distance_accuracy_value', 'NONE');
#229 = SECURITY_CLASSIFICATION_LEVEL ( 'unclassified' ) ;
#230 = COORDINATED_UNIVERSAL_TIME_OFFSET ( 5, 0, .BEHIND. ) ;
#231 = LINE ( 'NONE', #17, #178 ) ;
#232 = ORIENTED_EDGE ( 'NONE', *, *, #222, .T. ) ;
#233 = CC_DESIGN_PERSON_AND_ORGANIZATION_ASSIGNMENT ( #215, #166, ( #66 ) ) ;
#234 = COORDINATED_UNIVERSAL_TIME_OFFSET ( 5, 0, .BEHIND. ) ;
#235 = PERSON_AND_ORGANIZATION ( #168, #121 ) ;
#236 = CARTESIAN_POINT ( 'NONE',  ( -6.250000000000000000, -6.250000000000000000, 2.000000000000000000 ) ) ;
#237 = CC_DESIGN_PERSON_AND_ORGANIZATION_ASSIGNMENT ( #224, #128, ( #167 ) ) ;
ENDSEC;
END-ISO-10303-21;
