ISO-10303-21;
HEADER;
FILE_DESCRIPTION (( 'STEP AP203' ),
    '1' );
FILE_NAME ('Web Model 14967_18332.step',
    '2021-06-28T15:58:00',
    ( '' ),
    ( '' ),
    'SwSTEP 2.0',
    'SolidWorks 2018',
    '' );
FILE_SCHEMA (( 'CONFIG_CONTROL_DESIGN' ));
ENDSEC;

DATA;
#1 = EDGE_CURVE ( 'NONE', #3, #34, #120, .T. ) ;
#2 = CARTESIAN_POINT ( 'NONE',  ( -2.000000000000000000, 0.000000000000000000, 0.000000000000000000 ) ) ;
#3 = VERTEX_POINT ( 'NONE', #83 ) ;
#4 = CARTESIAN_POINT ( 'NONE',  ( 2.000000000000000000, 0.000000000000000000, 0.000000000000000000 ) ) ;
#5 = SECURITY_CLASSIFICATION_LEVEL ( 'unclassified' ) ;
#6 = CC_DESIGN_DATE_AND_TIME_ASSIGNMENT ( #102, #164, ( #128 ) ) ;
#7 = CARTESIAN_POINT ( 'NONE',  ( -2.000000000000000000, 0.000000000000000000, 0.000000000000000000 ) ) ;
#8 = CARTESIAN_POINT ( 'NONE',  ( -2.000000000000000000, 4.592425496802575156E-15, -37.50000000000000711 ) ) ;
#9 = FACE_OUTER_BOUND ( 'NONE', #174, .T. ) ;
#10 = PERSON ( 'UNSPECIFIED', 'UNSPECIFIED', 'UNSPECIFIED', ('UNSPECIFIED'), ('UNSPECIFIED'), ('UNSPECIFIED') ) ;
#11 = APPROVAL_DATE_TIME ( #48, #125 ) ;
#12 = CALENDAR_DATE ( 2021, 28, 6 ) ;
#13 = EDGE_CURVE ( 'NONE', #3, #114, #92, .T. ) ;
#14 = DIRECTION ( 'NONE',  ( -1.000000000000000000, -0.000000000000000000, -0.000000000000000000 ) ) ;
#15 = DIRECTION ( 'NONE',  ( 1.000000000000000000, 0.000000000000000000, 0.000000000000000000 ) ) ;
#16 = APPROVAL ( #134, 'UNSPECIFIED' ) ;
#17 = ORIENTED_EDGE ( 'NONE', *, *, #143, .T. ) ;
#18 =( NAMED_UNIT ( * ) SI_UNIT ( $, .STERADIAN. ) SOLID_ANGLE_UNIT ( ) );
#19 = APPROVAL_ROLE ( '' ) ;
#20 = PLANE ( 'NONE',  #156 ) ;
#21 = CIRCLE ( 'NONE', #147, 37.50000000000000711 ) ;
#22 = PRODUCT_DEFINITION_FORMATION_WITH_SPECIFIED_SOURCE ( 'ANY', '', #173, .NOT_KNOWN. ) ;
#23 = LOCAL_TIME ( 11, 58, 0.000000000000000000, #132 ) ;
#24 = ORIENTED_EDGE ( 'NONE', *, *, #13, .T. ) ;
#25 = LOCAL_TIME ( 11, 58, 0.000000000000000000, #64 ) ;
#26 = CC_DESIGN_APPROVAL ( #16, ( #22 ) ) ;
#27 = DIRECTION ( 'NONE',  ( 1.000000000000000000, 0.000000000000000000, 0.000000000000000000 ) ) ;
#28 = SHAPE_DEFINITION_REPRESENTATION ( #160, #131 ) ;
#29 = PERSON_AND_ORGANIZATION_ROLE ( 'design_owner' ) ;
#30 = DATE_TIME_ROLE ( 'classification_date' ) ;
#31 = CARTESIAN_POINT ( 'NONE',  ( 0.000000000000000000, 0.000000000000000000, 0.000000000000000000 ) ) ;
#32 = AXIS2_PLACEMENT_3D ( 'NONE', #45, #100, #167 ) ;
#33 = LOCAL_TIME ( 11, 58, 0.000000000000000000, #136 ) ;
#34 = VERTEX_POINT ( 'NONE', #161 ) ;
#35 = PERSON_AND_ORGANIZATION ( #10, #142 ) ;
#36 = AXIS2_PLACEMENT_3D ( 'NONE', #4, #46, #122 ) ;
#37 = FACE_OUTER_BOUND ( 'NONE', #80, .T. ) ;
#38 = ORIENTED_EDGE ( 'NONE', *, *, #71, .F. ) ;
#39 = CC_DESIGN_APPROVAL ( #125, ( #128 ) ) ;
#40 = CARTESIAN_POINT ( 'NONE',  ( 2.000000000000000000, 0.000000000000000000, 0.000000000000000000 ) ) ;
#41 = ORIENTED_EDGE ( 'NONE', *, *, #71, .T. ) ;
#42 = CARTESIAN_POINT ( 'NONE',  ( 2.000000000000000000, 0.000000000000000000, 0.000000000000000000 ) ) ;
#43 = PERSON_AND_ORGANIZATION_ROLE ( 'creator' ) ;
#44 = CLOSED_SHELL ( 'NONE', ( #76, #169, #87, #152 ) ) ;
#45 = CARTESIAN_POINT ( 'NONE',  ( -2.000000000000000000, 0.000000000000000000, 0.000000000000000000 ) ) ;
#46 = DIRECTION ( 'NONE',  ( -1.000000000000000000, -0.000000000000000000, -0.000000000000000000 ) ) ;
#47 = AXIS2_PLACEMENT_3D ( 'NONE', #118, #14, #106 ) ;
#48 = DATE_AND_TIME ( #85, #123 ) ;
#49 = ORIENTED_EDGE ( 'NONE', *, *, #1, .T. ) ;
#50 = EDGE_LOOP ( 'NONE', ( #95, #49 ) ) ;
#51 = EDGE_CURVE ( 'NONE', #34, #3, #133, .T. ) ;
#52 = ORIENTED_EDGE ( 'NONE', *, *, #143, .F. ) ;
#53 = CC_DESIGN_DATE_AND_TIME_ASSIGNMENT ( #79, #30, ( #91 ) ) ;
#54 = DIRECTION ( 'NONE',  ( 0.000000000000000000, 0.000000000000000000, -1.000000000000000000 ) ) ;
#55 = UNCERTAINTY_MEASURE_WITH_UNIT (LENGTH_MEASURE( 1.000000000000000082E-05 ), #135, 'distance_accuracy_value', 'NONE');
#56 = DIRECTION ( 'NONE',  ( 1.000000000000000000, 0.000000000000000000, 0.000000000000000000 ) ) ;
#57 = PERSON_AND_ORGANIZATION ( #10, #142 ) ;
#58 = APPLICATION_PROTOCOL_DEFINITION ( 'international standard', 'config_control_design', 1994, #153 ) ;
#59 = CC_DESIGN_PERSON_AND_ORGANIZATION_ASSIGNMENT ( #57, #29, ( #173 ) ) ;
#60 = PERSON_AND_ORGANIZATION ( #10, #142 ) ;
#61 = APPLICATION_CONTEXT ( 'configuration controlled 3d designs of mechanical parts and assemblies' ) ;
#62 = LOCAL_TIME ( 11, 58, 0.000000000000000000, #103 ) ;
#63 = ORIENTED_EDGE ( 'NONE', *, *, #141, .T. ) ;
#64 = COORDINATED_UNIVERSAL_TIME_OFFSET ( 5, 0, .BEHIND. ) ;
#65 = PRODUCT_RELATED_PRODUCT_CATEGORY ( 'detail', '', ( #173 ) ) ;
#66 = FACE_OUTER_BOUND ( 'NONE', #50, .T. ) ;
#67 = DIRECTION ( 'NONE',  ( -1.000000000000000000, -0.000000000000000000, -0.000000000000000000 ) ) ;
#68 = DATE_AND_TIME ( #172, #25 ) ;
#69 = DESIGN_CONTEXT ( 'detailed design', #153, 'design' ) ;
#70 = CARTESIAN_POINT ( 'NONE',  ( 2.000000000000000000, 0.000000000000000000, 0.000000000000000000 ) ) ;
#71 = EDGE_CURVE ( 'NONE', #81, #114, #21, .T. ) ;
#72 =( NAMED_UNIT ( * ) PLANE_ANGLE_UNIT ( ) SI_UNIT ( $, .RADIAN. ) );
#73 = APPROVAL_ROLE ( '' ) ;
#74 = APPROVAL_PERSON_ORGANIZATION ( #98, #16, #75 ) ;
#75 = APPROVAL_ROLE ( '' ) ;
#76 = ADVANCED_FACE ( 'NONE', ( #113 ), #150, .T. ) ;
#77 = CC_DESIGN_PERSON_AND_ORGANIZATION_ASSIGNMENT ( #175, #110, ( #91 ) ) ;
#78 = VECTOR ( 'NONE', #67, 1000.000000000000000 ) ;
#79 = DATE_AND_TIME ( #171, #33 ) ;
#80 = EDGE_LOOP ( 'NONE', ( #104, #144, #63, #41 ) ) ;
#81 = VERTEX_POINT ( 'NONE', #162 ) ;
#82 =( GEOMETRIC_REPRESENTATION_CONTEXT ( 3 ) GLOBAL_UNCERTAINTY_ASSIGNED_CONTEXT ( ( #55 ) ) GLOBAL_UNIT_ASSIGNED_CONTEXT ( ( #135, #72, #18 ) ) REPRESENTATION_CONTEXT ( 'NONE', 'WORKASPACE' ) );
#83 = CARTESIAN_POINT ( 'NONE',  ( 2.000000000000000000, 4.592425496802575156E-15, -37.50000000000000711 ) ) ;
#84 = AXIS2_PLACEMENT_3D ( 'NONE', #70, #27, #107 ) ;
#85 = CALENDAR_DATE ( 2021, 28, 6 ) ;
#86 = PERSON_AND_ORGANIZATION_ROLE ( 'design_supplier' ) ;
#87 = ADVANCED_FACE ( 'NONE', ( #66 ), #20, .T. ) ;
#88 = DIRECTION ( 'NONE',  ( -1.000000000000000000, -0.000000000000000000, -0.000000000000000000 ) ) ;
#89 = MANIFOLD_SOLID_BREP ( 'Boss-Extrude1', #44 ) ;
#90 = CC_DESIGN_PERSON_AND_ORGANIZATION_ASSIGNMENT ( #35, #86, ( #22 ) ) ;
#91 = SECURITY_CLASSIFICATION ( '', '', #5 ) ;
#92 = LINE ( 'NONE', #146, #78 ) ;
#93 = PERSON_AND_ORGANIZATION ( #10, #142 ) ;
#94 = DATE_AND_TIME ( #12, #62 ) ;
#95 = ORIENTED_EDGE ( 'NONE', *, *, #51, .T. ) ;
#96 = APPROVAL ( #151, 'UNSPECIFIED' ) ;
#97 = DIRECTION ( 'NONE',  ( 0.000000000000000000, 0.000000000000000000, -1.000000000000000000 ) ) ;
#98 = PERSON_AND_ORGANIZATION ( #10, #142 ) ;
#99 = DIRECTION ( 'NONE',  ( 0.000000000000000000, 0.000000000000000000, -1.000000000000000000 ) ) ;
#100 = DIRECTION ( 'NONE',  ( 1.000000000000000000, 0.000000000000000000, 0.000000000000000000 ) ) ;
#101 = VECTOR ( 'NONE', #88, 1000.000000000000000 ) ;
#102 = DATE_AND_TIME ( #166, #23 ) ;
#103 = COORDINATED_UNIVERSAL_TIME_OFFSET ( 5, 0, .BEHIND. ) ;
#104 = ORIENTED_EDGE ( 'NONE', *, *, #13, .F. ) ;
#105 = LINE ( 'NONE', #154, #101 ) ;
#106 = DIRECTION ( 'NONE',  ( 0.000000000000000000, 0.000000000000000000, 1.000000000000000000 ) ) ;
#107 = DIRECTION ( 'NONE',  ( 0.000000000000000000, 0.000000000000000000, -1.000000000000000000 ) ) ;
#108 = ORIENTED_EDGE ( 'NONE', *, *, #1, .F. ) ;
#109 = MECHANICAL_CONTEXT ( 'NONE', #61, 'mechanical' ) ;
#110 = PERSON_AND_ORGANIZATION_ROLE ( 'classification_officer' ) ;
#111 = AXIS2_PLACEMENT_3D ( 'NONE', #40, #121, #54 ) ;
#112 = APPLICATION_PROTOCOL_DEFINITION ( 'international standard', 'config_control_design', 1994, #61 ) ;
#113 = FACE_OUTER_BOUND ( 'NONE', #145, .T. ) ;
#114 = VERTEX_POINT ( 'NONE', #8 ) ;
#115 = CC_DESIGN_APPROVAL ( #96, ( #91 ) ) ;
#116 = APPROVAL_PERSON_ORGANIZATION ( #155, #125, #19 ) ;
#117 = APPROVAL_PERSON_ORGANIZATION ( #130, #96, #73 ) ;
#118 = CARTESIAN_POINT ( 'NONE',  ( 2.000000000000000000, 0.000000000000000000, 0.000000000000000000 ) ) ;
#119 = AXIS2_PLACEMENT_3D ( 'NONE', #31, #139, #137 ) ;
#120 = CIRCLE ( 'NONE', #84, 37.50000000000000711 ) ;
#121 = DIRECTION ( 'NONE',  ( 1.000000000000000000, 0.000000000000000000, 0.000000000000000000 ) ) ;
#122 = DIRECTION ( 'NONE',  ( 0.000000000000000000, 0.000000000000000000, 1.000000000000000000 ) ) ;
#123 = LOCAL_TIME ( 11, 58, 0.000000000000000000, #158 ) ;
#124 = APPROVAL_STATUS ( 'not_yet_approved' ) ;
#125 = APPROVAL ( #124, 'UNSPECIFIED' ) ;
#126 = PLANE ( 'NONE',  #32 ) ;
#127 = APPROVAL_DATE_TIME ( #68, #16 ) ;
#128 = PRODUCT_DEFINITION ( 'UNKNOWN', '', #22, #69 ) ;
#129 = CYLINDRICAL_SURFACE ( 'NONE', #36, 37.50000000000000711 ) ;
#130 = PERSON_AND_ORGANIZATION ( #10, #142 ) ;
#131 = ADVANCED_BREP_SHAPE_REPRESENTATION ( 'Web Model 14967_18332', ( #89, #119 ), #82 ) ;
#132 = COORDINATED_UNIVERSAL_TIME_OFFSET ( 5, 0, .BEHIND. ) ;
#133 = CIRCLE ( 'NONE', #111, 37.50000000000000711 ) ;
#134 = APPROVAL_STATUS ( 'not_yet_approved' ) ;
#135 =( LENGTH_UNIT ( ) NAMED_UNIT ( * ) SI_UNIT ( .MILLI., .METRE. ) );
#136 = COORDINATED_UNIVERSAL_TIME_OFFSET ( 5, 0, .BEHIND. ) ;
#137 = DIRECTION ( 'NONE',  ( 1.000000000000000000, 0.000000000000000000, 0.000000000000000000 ) ) ;
#138 = APPROVAL_DATE_TIME ( #94, #96 ) ;
#139 = DIRECTION ( 'NONE',  ( 0.000000000000000000, 0.000000000000000000, 1.000000000000000000 ) ) ;
#140 = CC_DESIGN_PERSON_AND_ORGANIZATION_ASSIGNMENT ( #93, #149, ( #22 ) ) ;
#141 = EDGE_CURVE ( 'NONE', #34, #81, #105, .T. ) ;
#142 = ORGANIZATION ( 'UNSPECIFIED', 'UNSPECIFIED', '' ) ;
#143 = EDGE_CURVE ( 'NONE', #114, #81, #170, .T. ) ;
#144 = ORIENTED_EDGE ( 'NONE', *, *, #51, .F. ) ;
#145 = EDGE_LOOP ( 'NONE', ( #108, #24, #17, #157 ) ) ;
#146 = CARTESIAN_POINT ( 'NONE',  ( 2.000000000000000000, 4.592425496802575156E-15, -37.50000000000000711 ) ) ;
#147 = AXIS2_PLACEMENT_3D ( 'NONE', #2, #15, #148 ) ;
#148 = DIRECTION ( 'NONE',  ( 0.000000000000000000, 0.000000000000000000, -1.000000000000000000 ) ) ;
#149 = PERSON_AND_ORGANIZATION_ROLE ( 'creator' ) ;
#150 = CYLINDRICAL_SURFACE ( 'NONE', #47, 37.50000000000000711 ) ;
#151 = APPROVAL_STATUS ( 'not_yet_approved' ) ;
#152 = ADVANCED_FACE ( 'NONE', ( #9 ), #126, .F. ) ;
#153 = APPLICATION_CONTEXT ( 'configuration controlled 3d designs of mechanical parts and assemblies' ) ;
#154 = CARTESIAN_POINT ( 'NONE',  ( 2.000000000000000000, 0.000000000000000000, 37.50000000000000711 ) ) ;
#155 = PERSON_AND_ORGANIZATION ( #10, #142 ) ;
#156 = AXIS2_PLACEMENT_3D ( 'NONE', #42, #165, #99 ) ;
#157 = ORIENTED_EDGE ( 'NONE', *, *, #141, .F. ) ;
#158 = COORDINATED_UNIVERSAL_TIME_OFFSET ( 5, 0, .BEHIND. ) ;
#159 = CC_DESIGN_SECURITY_CLASSIFICATION ( #91, ( #22 ) ) ;
#160 = PRODUCT_DEFINITION_SHAPE ( 'NONE', 'NONE',  #128 ) ;
#161 = CARTESIAN_POINT ( 'NONE',  ( 2.000000000000000000, 0.000000000000000000, 37.50000000000000711 ) ) ;
#162 = CARTESIAN_POINT ( 'NONE',  ( -2.000000000000000000, 0.000000000000000000, 37.50000000000000711 ) ) ;
#163 = AXIS2_PLACEMENT_3D ( 'NONE', #7, #56, #97 ) ;
#164 = DATE_TIME_ROLE ( 'creation_date' ) ;
#165 = DIRECTION ( 'NONE',  ( 1.000000000000000000, 0.000000000000000000, 0.000000000000000000 ) ) ;
#166 = CALENDAR_DATE ( 2021, 28, 6 ) ;
#167 = DIRECTION ( 'NONE',  ( 0.000000000000000000, 0.000000000000000000, -1.000000000000000000 ) ) ;
#168 = CC_DESIGN_PERSON_AND_ORGANIZATION_ASSIGNMENT ( #60, #43, ( #128 ) ) ;
#169 = ADVANCED_FACE ( 'NONE', ( #37 ), #129, .T. ) ;
#170 = CIRCLE ( 'NONE', #163, 37.50000000000000711 ) ;
#171 = CALENDAR_DATE ( 2021, 28, 6 ) ;
#172 = CALENDAR_DATE ( 2021, 28, 6 ) ;
#173 = PRODUCT ( 'Web Model 14967_18332', 'Web Model 14967_18332', '', ( #109 ) ) ;
#174 = EDGE_LOOP ( 'NONE', ( #38, #52 ) ) ;
#175 = PERSON_AND_ORGANIZATION ( #10, #142 ) ;
ENDSEC;
END-ISO-10303-21;
