ISO-10303-21;
HEADER;
FILE_DESCRIPTION (( 'STEP AP203' ),
    '1' );
FILE_NAME ('Web Model 68504.STEP',
    '2017-02-01T13:23:32',
    ( '' ),
    ( '' ),
    'SwSTEP 2.0',
    'SolidWorks 2016',
    '' );
FILE_SCHEMA (( 'CONFIG_CONTROL_DESIGN' ));
ENDSEC;

DATA;
#1 = CARTESIAN_POINT ( 'NONE',  ( 0.0000000000000000000, 0.0000000000000000000, 3.000000000000000000 ) ) ;
#2 = CIRCLE ( 'NONE', #93, 25.00000000000000000 ) ;
#3 = DATE_AND_TIME ( #167, #97 ) ;
#4 = FACE_OUTER_BOUND ( 'NONE', #7, .T. ) ;
#5 = EDGE_CURVE ( 'NONE', #32, #18, #69, .T. ) ;
#6 = ADVANCED_FACE ( 'NONE', ( #4 ), #122, .F. ) ;
#7 = EDGE_LOOP ( 'NONE', ( #138, #111 ) ) ;
#8 = APPROVAL_ROLE ( '' ) ;
#9 = AXIS2_PLACEMENT_3D ( 'NONE', #67, #41, #65 ) ;
#10 = SECURITY_CLASSIFICATION_LEVEL ( 'unclassified' ) ;
#11 = CARTESIAN_POINT ( 'NONE',  ( 0.0000000000000000000, 0.0000000000000000000, 3.000000000000000000 ) ) ;
#12 = COORDINATED_UNIVERSAL_TIME_OFFSET ( 5, 0, .BEHIND. ) ;
#13 = VERTEX_POINT ( 'NONE', #44 ) ;
#14 = CARTESIAN_POINT ( 'NONE',  ( -25.00000000000000000, 0.0000000000000000000, 3.000000000000000000 ) ) ;
#15 = APPROVAL_DATE_TIME ( #24, #173 ) ;
#16 = PRODUCT_DEFINITION_FORMATION_WITH_SPECIFIED_SOURCE ( 'ANY', '', #60, .NOT_KNOWN. ) ;
#17 = DIRECTION ( 'NONE',  ( 1.000000000000000000, 0.0000000000000000000, 0.0000000000000000000 ) ) ;
#18 = VERTEX_POINT ( 'NONE', #45 ) ;
#19 = SHAPE_DEFINITION_REPRESENTATION ( #85, #106 ) ;
#20 = EDGE_CURVE ( 'NONE', #18, #32, #102, .T. ) ;
#21 = ORIENTED_EDGE ( 'NONE', *, *, #156, .F. ) ;
#22 = PERSON_AND_ORGANIZATION_ROLE ( 'creator' ) ;
#23 = MANIFOLD_SOLID_BREP ( 'Extrude1', #126 ) ;
#24 = DATE_AND_TIME ( #72, #64 ) ;
#25 = DIRECTION ( 'NONE',  ( -0.0000000000000000000, -0.0000000000000000000, -1.000000000000000000 ) ) ;
#26 = ORIENTED_EDGE ( 'NONE', *, *, #5, .F. ) ;
#27 = DIRECTION ( 'NONE',  ( 0.0000000000000000000, 0.0000000000000000000, 1.000000000000000000 ) ) ;
#28 = VERTEX_POINT ( 'NONE', #105 ) ;
#29 = PERSON_AND_ORGANIZATION ( #94, #162 ) ;
#30 = DIRECTION ( 'NONE',  ( 1.000000000000000000, 0.0000000000000000000, -0.0000000000000000000 ) ) ;
#31 = CC_DESIGN_PERSON_AND_ORGANIZATION_ASSIGNMENT ( #115, #68, ( #96 ) ) ;
#32 = VERTEX_POINT ( 'NONE', #165 ) ;
#33 = AXIS2_PLACEMENT_3D ( 'NONE', #166, #54, #145 ) ;
#34 = EDGE_LOOP ( 'NONE', ( #78, #153 ) ) ;
#35 = COORDINATED_UNIVERSAL_TIME_OFFSET ( 5, 0, .BEHIND. ) ;
#36 = DATE_TIME_ROLE ( 'creation_date' ) ;
#37 = CC_DESIGN_PERSON_AND_ORGANIZATION_ASSIGNMENT ( #143, #22, ( #157 ) ) ;
#38 = CC_DESIGN_DATE_AND_TIME_ASSIGNMENT ( #79, #48, ( #96 ) ) ;
#39 = CARTESIAN_POINT ( 'NONE',  ( 0.0000000000000000000, 0.0000000000000000000, 3.000000000000000000 ) ) ;
#40 = DIRECTION ( 'NONE',  ( -1.000000000000000000, 0.0000000000000000000, 0.0000000000000000000 ) ) ;
#41 = DIRECTION ( 'NONE',  ( 0.0000000000000000000, 0.0000000000000000000, 1.000000000000000000 ) ) ;
#42 = DIRECTION ( 'NONE',  ( 1.000000000000000000, 0.0000000000000000000, 0.0000000000000000000 ) ) ;
#43 =( NAMED_UNIT ( * ) SI_UNIT ( $, .STERADIAN. ) SOLID_ANGLE_UNIT ( ) );
#44 = CARTESIAN_POINT ( 'NONE',  ( -25.00000000000000000, 0.0000000000000000000, 0.0000000000000000000 ) ) ;
#45 = CARTESIAN_POINT ( 'NONE',  ( -25.00000000000000000, 0.0000000000000000000, 3.000000000000000000 ) ) ;
#46 = APPROVAL_PERSON_ORGANIZATION ( #75, #90, #53 ) ;
#47 = APPROVAL_DATE_TIME ( #3, #90 ) ;
#48 = DATE_TIME_ROLE ( 'classification_date' ) ;
#49 = CC_DESIGN_PERSON_AND_ORGANIZATION_ASSIGNMENT ( #147, #158, ( #16 ) ) ;
#50 = CARTESIAN_POINT ( 'NONE',  ( 0.0000000000000000000, 0.0000000000000000000, 0.0000000000000000000 ) ) ;
#51 = APPROVAL_PERSON_ORGANIZATION ( #29, #173, #135 ) ;
#52 = CALENDAR_DATE ( 2017, 1, 2 ) ;
#53 = APPROVAL_ROLE ( '' ) ;
#54 = DIRECTION ( 'NONE',  ( 0.0000000000000000000, 0.0000000000000000000, 1.000000000000000000 ) ) ;
#55 = COORDINATED_UNIVERSAL_TIME_OFFSET ( 5, 0, .BEHIND. ) ;
#56 =( NAMED_UNIT ( * ) PLANE_ANGLE_UNIT ( ) SI_UNIT ( $, .RADIAN. ) );
#57 = AXIS2_PLACEMENT_3D ( 'NONE', #11, #118, #66 ) ;
#58 = DIRECTION ( 'NONE',  ( 0.0000000000000000000, 0.0000000000000000000, 1.000000000000000000 ) ) ;
#59 = CC_DESIGN_PERSON_AND_ORGANIZATION_ASSIGNMENT ( #104, #172, ( #16 ) ) ;
#60 = PRODUCT ( 'Web Model 68504', 'Web Model 68504', '', ( #74 ) ) ;
#61 = DESIGN_CONTEXT ( 'detailed design', #121, 'design' ) ;
#62 = CC_DESIGN_PERSON_AND_ORGANIZATION_ASSIGNMENT ( #88, #171, ( #60 ) ) ;
#63 = VECTOR ( 'NONE', #100, 1000.000000000000000 ) ;
#64 = LOCAL_TIME ( 8, 23, 32.00000000000000000, #12 ) ;
#65 = DIRECTION ( 'NONE',  ( 1.000000000000000000, 0.0000000000000000000, 0.0000000000000000000 ) ) ;
#66 = DIRECTION ( 'NONE',  ( -1.000000000000000000, 0.0000000000000000000, 0.0000000000000000000 ) ) ;
#67 = CARTESIAN_POINT ( 'NONE',  ( 0.0000000000000000000, 0.0000000000000000000, 0.0000000000000000000 ) ) ;
#68 = PERSON_AND_ORGANIZATION_ROLE ( 'classification_officer' ) ;
#69 = CIRCLE ( 'NONE', #151, 25.00000000000000000 ) ;
#70 = CALENDAR_DATE ( 2017, 1, 2 ) ;
#71 = ORIENTED_EDGE ( 'NONE', *, *, #149, .T. ) ;
#72 = CALENDAR_DATE ( 2017, 1, 2 ) ;
#73 = CYLINDRICAL_SURFACE ( 'NONE', #57, 25.00000000000000000 ) ;
#74 = MECHANICAL_CONTEXT ( 'NONE', #148, 'mechanical' ) ;
#75 = PERSON_AND_ORGANIZATION ( #94, #162 ) ;
#76 = APPROVAL ( #87, 'UNSPECIFIED' ) ;
#77 = COORDINATED_UNIVERSAL_TIME_OFFSET ( 5, 0, .BEHIND. ) ;
#78 = ORIENTED_EDGE ( 'NONE', *, *, #20, .T. ) ;
#79 = DATE_AND_TIME ( #52, #159 ) ;
#80 = ORIENTED_EDGE ( 'NONE', *, *, #149, .F. ) ;
#81 = CC_DESIGN_APPROVAL ( #76, ( #157 ) ) ;
#82 = APPROVAL_STATUS ( 'not_yet_approved' ) ;
#83 = DATE_AND_TIME ( #70, #109 ) ;
#84 = AXIS2_PLACEMENT_3D ( 'NONE', #103, #58, #30 ) ;
#85 = PRODUCT_DEFINITION_SHAPE ( 'NONE', 'NONE',  #157 ) ;
#86 = APPLICATION_PROTOCOL_DEFINITION ( 'international standard', 'config_control_design', 1994, #121 ) ;
#87 = APPROVAL_STATUS ( 'not_yet_approved' ) ;
#88 = PERSON_AND_ORGANIZATION ( #94, #162 ) ;
#89 = FACE_OUTER_BOUND ( 'NONE', #141, .T. ) ;
#90 = APPROVAL ( #127, 'UNSPECIFIED' ) ;
#91 = FACE_OUTER_BOUND ( 'NONE', #34, .T. ) ;
#92 = VECTOR ( 'NONE', #25, 1000.000000000000000 ) ;
#93 = AXIS2_PLACEMENT_3D ( 'NONE', #128, #116, #42 ) ;
#94 = PERSON ( 'UNSPECIFIED', 'UNSPECIFIED', 'UNSPECIFIED', ('UNSPECIFIED'), ('UNSPECIFIED'), ('UNSPECIFIED') ) ;
#95 = EDGE_CURVE ( 'NONE', #13, #28, #175, .T. ) ;
#96 = SECURITY_CLASSIFICATION ( '', '', #10 ) ;
#97 = LOCAL_TIME ( 8, 23, 32.00000000000000000, #77 ) ;
#98 = DIRECTION ( 'NONE',  ( 1.000000000000000000, 0.0000000000000000000, 0.0000000000000000000 ) ) ;
#99 = AXIS2_PLACEMENT_3D ( 'NONE', #39, #142, #174 ) ;
#100 = DIRECTION ( 'NONE',  ( -0.0000000000000000000, -0.0000000000000000000, -1.000000000000000000 ) ) ;
#101 = ORIENTED_EDGE ( 'NONE', *, *, #20, .F. ) ;
#102 = CIRCLE ( 'NONE', #33, 25.00000000000000000 ) ;
#103 = CARTESIAN_POINT ( 'NONE',  ( 0.0000000000000000000, 0.0000000000000000000, 0.0000000000000000000 ) ) ;
#104 = PERSON_AND_ORGANIZATION ( #94, #162 ) ;
#105 = CARTESIAN_POINT ( 'NONE',  ( 25.00000000000000000, 3.061616997868383000E-015, 0.0000000000000000000 ) ) ;
#106 = ADVANCED_BREP_SHAPE_REPRESENTATION ( 'Web Model 68504', ( #23, #140 ), #170 ) ;
#107 = EDGE_CURVE ( 'NONE', #28, #13, #2, .T. ) ;
#108 = EDGE_LOOP ( 'NONE', ( #80, #101, #146, #119 ) ) ;
#109 = LOCAL_TIME ( 8, 23, 32.00000000000000000, #35 ) ;
#110 = AXIS2_PLACEMENT_3D ( 'NONE', #129, #117, #40 ) ;
#111 = ORIENTED_EDGE ( 'NONE', *, *, #107, .F. ) ;
#112 = LOCAL_TIME ( 8, 23, 32.00000000000000000, #120 ) ;
#113 = CC_DESIGN_SECURITY_CLASSIFICATION ( #96, ( #16 ) ) ;
#114 = CC_DESIGN_APPROVAL ( #173, ( #96 ) ) ;
#115 = PERSON_AND_ORGANIZATION ( #94, #162 ) ;
#116 = DIRECTION ( 'NONE',  ( 0.0000000000000000000, 0.0000000000000000000, 1.000000000000000000 ) ) ;
#117 = DIRECTION ( 'NONE',  ( -0.0000000000000000000, -0.0000000000000000000, -1.000000000000000000 ) ) ;
#118 = DIRECTION ( 'NONE',  ( -0.0000000000000000000, -0.0000000000000000000, -1.000000000000000000 ) ) ;
#119 = ORIENTED_EDGE ( 'NONE', *, *, #95, .T. ) ;
#120 = COORDINATED_UNIVERSAL_TIME_OFFSET ( 5, 0, .BEHIND. ) ;
#121 = APPLICATION_CONTEXT ( 'configuration controlled 3d designs of mechanical parts and assemblies' ) ;
#122 = PLANE ( 'NONE',  #84 ) ;
#123 = CYLINDRICAL_SURFACE ( 'NONE', #110, 25.00000000000000000 ) ;
#124 = PRODUCT_RELATED_PRODUCT_CATEGORY ( 'detail', '', ( #60 ) ) ;
#125 = DATE_AND_TIME ( #154, #112 ) ;
#126 = CLOSED_SHELL ( 'NONE', ( #168, #137, #134, #6 ) ) ;
#127 = APPROVAL_STATUS ( 'not_yet_approved' ) ;
#128 = CARTESIAN_POINT ( 'NONE',  ( 0.0000000000000000000, 0.0000000000000000000, 0.0000000000000000000 ) ) ;
#129 = CARTESIAN_POINT ( 'NONE',  ( 0.0000000000000000000, 0.0000000000000000000, 3.000000000000000000 ) ) ;
#130 = LINE ( 'NONE', #161, #92 ) ;
#131 =( LENGTH_UNIT ( ) NAMED_UNIT ( * ) SI_UNIT ( .MILLI., .METRE. ) );
#132 = UNCERTAINTY_MEASURE_WITH_UNIT (LENGTH_MEASURE( 1.000000000000000100E-005 ), #131, 'distance_accuracy_value', 'NONE');
#133 = LINE ( 'NONE', #14, #63 ) ;
#134 = ADVANCED_FACE ( 'NONE', ( #91 ), #160, .T. ) ;
#135 = APPROVAL_ROLE ( '' ) ;
#136 = ORIENTED_EDGE ( 'NONE', *, *, #107, .T. ) ;
#137 = ADVANCED_FACE ( 'NONE', ( #144 ), #73, .T. ) ;
#138 = ORIENTED_EDGE ( 'NONE', *, *, #95, .F. ) ;
#139 = APPLICATION_PROTOCOL_DEFINITION ( 'international standard', 'config_control_design', 1994, #148 ) ;
#140 = AXIS2_PLACEMENT_3D ( 'NONE', #50, #169, #98 ) ;
#141 = EDGE_LOOP ( 'NONE', ( #26, #71, #136, #21 ) ) ;
#142 = DIRECTION ( 'NONE',  ( 0.0000000000000000000, 0.0000000000000000000, 1.000000000000000000 ) ) ;
#143 = PERSON_AND_ORGANIZATION ( #94, #162 ) ;
#144 = FACE_OUTER_BOUND ( 'NONE', #108, .T. ) ;
#145 = DIRECTION ( 'NONE',  ( 1.000000000000000000, 0.0000000000000000000, 0.0000000000000000000 ) ) ;
#146 = ORIENTED_EDGE ( 'NONE', *, *, #156, .T. ) ;
#147 = PERSON_AND_ORGANIZATION ( #94, #162 ) ;
#148 = APPLICATION_CONTEXT ( 'configuration controlled 3d designs of mechanical parts and assemblies' ) ;
#149 = EDGE_CURVE ( 'NONE', #32, #28, #130, .T. ) ;
#150 = CC_DESIGN_DATE_AND_TIME_ASSIGNMENT ( #83, #36, ( #157 ) ) ;
#151 = AXIS2_PLACEMENT_3D ( 'NONE', #1, #27, #17 ) ;
#152 = APPROVAL_DATE_TIME ( #125, #76 ) ;
#153 = ORIENTED_EDGE ( 'NONE', *, *, #5, .T. ) ;
#154 = CALENDAR_DATE ( 2017, 1, 2 ) ;
#155 = APPROVAL_PERSON_ORGANIZATION ( #163, #76, #8 ) ;
#156 = EDGE_CURVE ( 'NONE', #18, #13, #133, .T. ) ;
#157 = PRODUCT_DEFINITION ( 'UNKNOWN', '', #16, #61 ) ;
#158 = PERSON_AND_ORGANIZATION_ROLE ( 'creator' ) ;
#159 = LOCAL_TIME ( 8, 23, 32.00000000000000000, #55 ) ;
#160 = PLANE ( 'NONE',  #99 ) ;
#161 = CARTESIAN_POINT ( 'NONE',  ( 25.00000000000000000, 3.061616997868383000E-015, 3.000000000000000000 ) ) ;
#162 = ORGANIZATION ( 'UNSPECIFIED', 'UNSPECIFIED', '' ) ;
#163 = PERSON_AND_ORGANIZATION ( #94, #162 ) ;
#164 = CC_DESIGN_APPROVAL ( #90, ( #16 ) ) ;
#165 = CARTESIAN_POINT ( 'NONE',  ( 25.00000000000000000, 3.061616997868383000E-015, 3.000000000000000000 ) ) ;
#166 = CARTESIAN_POINT ( 'NONE',  ( 0.0000000000000000000, 0.0000000000000000000, 3.000000000000000000 ) ) ;
#167 = CALENDAR_DATE ( 2017, 1, 2 ) ;
#168 = ADVANCED_FACE ( 'NONE', ( #89 ), #123, .T. ) ;
#169 = DIRECTION ( 'NONE',  ( 0.0000000000000000000, 0.0000000000000000000, 1.000000000000000000 ) ) ;
#170 =( GEOMETRIC_REPRESENTATION_CONTEXT ( 3 ) GLOBAL_UNCERTAINTY_ASSIGNED_CONTEXT ( ( #132 ) ) GLOBAL_UNIT_ASSIGNED_CONTEXT ( ( #131, #56, #43 ) ) REPRESENTATION_CONTEXT ( 'NONE', 'WORKASPACE' ) );
#171 = PERSON_AND_ORGANIZATION_ROLE ( 'design_owner' ) ;
#172 = PERSON_AND_ORGANIZATION_ROLE ( 'design_supplier' ) ;
#173 = APPROVAL ( #82, 'UNSPECIFIED' ) ;
#174 = DIRECTION ( 'NONE',  ( 1.000000000000000000, 0.0000000000000000000, -0.0000000000000000000 ) ) ;
#175 = CIRCLE ( 'NONE', #9, 25.00000000000000000 ) ;
ENDSEC;
END-ISO-10303-21;
