ISO-10303-21;
HEADER;
FILE_DESCRIPTION (( 'STEP AP203' ),
    '1' );
FILE_NAME ('Web Model 47048_47050.step',
    '2017-06-06T16:57:22',
    ( '' ),
    ( '' ),
    'SwSTEP 2.0',
    'SolidWorks 2016',
    '' );
FILE_SCHEMA (( 'CONFIG_CONTROL_DESIGN' ));
ENDSEC;

DATA;
#1 = ORIENTED_EDGE ( 'NONE', *, *, #76, .T. ) ;
#2 = CARTESIAN_POINT ( 'NONE',  ( -12.50000000000000000, 12.50000000000000000, 12.50000000000000000 ) ) ;
#3 = PLANE ( 'NONE',  #319 ) ;
#4 = CC_DESIGN_PERSON_AND_ORGANIZATION_ASSIGNMENT ( #208, #177, ( #47 ) ) ;
#5 = PERSON_AND_ORGANIZATION ( #75, #138 ) ;
#6 = ORIENTED_EDGE ( 'NONE', *, *, #272, .T. ) ;
#7 = CARTESIAN_POINT ( 'NONE',  ( 0.0000000000000000000, -12.50000000000000000, -12.50000000000000000 ) ) ;
#8 = CARTESIAN_POINT ( 'NONE',  ( 0.0000000000000000000, -12.50000000000000000, 12.50000000000000000 ) ) ;
#9 = VECTOR ( 'NONE', #53, 1000.000000000000000 ) ;
#10 = DIRECTION ( 'NONE',  ( -1.000000000000000000, 0.0000000000000000000, 0.0000000000000000000 ) ) ;
#11 = CARTESIAN_POINT ( 'NONE',  ( -12.50000000000000000, 12.50000000000000000, -12.50000000000000000 ) ) ;
#12 = CALENDAR_DATE ( 2017, 6, 6 ) ;
#13 = APPLICATION_CONTEXT ( 'configuration controlled 3d designs of mechanical parts and assemblies' ) ;
#14 = ORIENTED_EDGE ( 'NONE', *, *, #124, .T. ) ;
#15 = FACE_OUTER_BOUND ( 'NONE', #128, .T. ) ;
#16 = ORIENTED_EDGE ( 'NONE', *, *, #46, .F. ) ;
#17 = APPROVAL_PERSON_ORGANIZATION ( #225, #40, #39 ) ;
#18 = ORIENTED_EDGE ( 'NONE', *, *, #272, .F. ) ;
#19 = APPROVAL_DATE_TIME ( #155, #246 ) ;
#20 = ORIENTED_EDGE ( 'NONE', *, *, #120, .T. ) ;
#21 = PRODUCT_DEFINITION ( 'UNKNOWN', '', #114, #72 ) ;
#22 = LINE ( 'NONE', #255, #263 ) ;
#23 = VECTOR ( 'NONE', #230, 1000.000000000000000 ) ;
#24 = CARTESIAN_POINT ( 'NONE',  ( 0.0000000000000000000, 12.50000000000000000, 12.50000000000000000 ) ) ;
#25 = CLOSED_SHELL ( 'NONE', ( #269, #69, #101, #206, #97 ) ) ;
#26 = LINE ( 'NONE', #282, #37 ) ;
#27 = DIRECTION ( 'NONE',  ( -0.0000000000000000000, -0.0000000000000000000, -1.000000000000000000 ) ) ;
#28 = PLANE ( 'NONE',  #62 ) ;
#29 = DIRECTION ( 'NONE',  ( 0.0000000000000000000, 1.000000000000000000, -0.0000000000000000000 ) ) ;
#30 = DIRECTION ( 'NONE',  ( 1.000000000000000000, 0.0000000000000000000, 0.0000000000000000000 ) ) ;
#31 = ORIENTED_EDGE ( 'NONE', *, *, #35, .F. ) ;
#32 = CARTESIAN_POINT ( 'NONE',  ( 0.0000000000000000000, 0.0000000000000000000, 12.50000000000000000 ) ) ;
#33 = COORDINATED_UNIVERSAL_TIME_OFFSET ( 5, 0, .BEHIND. ) ;
#34 = CARTESIAN_POINT ( 'NONE',  ( -12.50000000000000000, 12.50000000000000000, 12.50000000000000000 ) ) ;
#35 = EDGE_CURVE ( 'NONE', #278, #145, #321, .T. ) ;
#36 = DIRECTION ( 'NONE',  ( -0.7071067811865474600, 0.7071067811865474600, 0.0000000000000000000 ) ) ;
#37 = VECTOR ( 'NONE', #54, 1000.000000000000000 ) ;
#38 = DIRECTION ( 'NONE',  ( 1.000000000000000000, 0.0000000000000000000, 0.0000000000000000000 ) ) ;
#39 = APPROVAL_ROLE ( '' ) ;
#40 = APPROVAL ( #96, 'UNSPECIFIED' ) ;
#41 = DIRECTION ( 'NONE',  ( 0.0000000000000000000, 0.0000000000000000000, 1.000000000000000000 ) ) ;
#42 = APPROVAL_PERSON_ORGANIZATION ( #169, #246, #314 ) ;
#43 = ORIENTED_EDGE ( 'NONE', *, *, #120, .F. ) ;
#44 = EDGE_LOOP ( 'NONE', ( #45, #209, #50 ) ) ;
#45 = ORIENTED_EDGE ( 'NONE', *, *, #254, .F. ) ;
#46 = EDGE_CURVE ( 'NONE', #164, #180, #318, .T. ) ;
#47 = PRODUCT ( 'Web Model 47048_47050', 'Web Model 47048_47050', '', ( #268 ) ) ;
#48 = VERTEX_POINT ( 'NONE', #2 ) ;
#49 = EDGE_CURVE ( 'NONE', #320, #180, #295, .T. ) ;
#50 = ORIENTED_EDGE ( 'NONE', *, *, #124, .F. ) ;
#51 = DIRECTION ( 'NONE',  ( -0.0000000000000000000, -0.0000000000000000000, -1.000000000000000000 ) ) ;
#52 = CC_DESIGN_APPROVAL ( #40, ( #21 ) ) ;
#53 = DIRECTION ( 'NONE',  ( -0.0000000000000000000, -0.0000000000000000000, -1.000000000000000000 ) ) ;
#54 = DIRECTION ( 'NONE',  ( 1.000000000000000000, 0.0000000000000000000, 0.0000000000000000000 ) ) ;
#55 = PLANE ( 'NONE',  #123 ) ;
#56 = EDGE_CURVE ( 'NONE', #298, #203, #214, .T. ) ;
#57 = CARTESIAN_POINT ( 'NONE',  ( -12.50000000000000000, -12.50000000000000000, -12.50000000000000000 ) ) ;
#58 = CARTESIAN_POINT ( 'NONE',  ( -12.50000000000000000, 0.0000000000000000000, 12.50000000000000000 ) ) ;
#59 = FACE_OUTER_BOUND ( 'NONE', #44, .T. ) ;
#60 = VECTOR ( 'NONE', #240, 1000.000000000000000 ) ;
#61 = CARTESIAN_POINT ( 'NONE',  ( -0.0000000000000000000, 0.0000000000000000000, -12.50000000000000000 ) ) ;
#62 = AXIS2_PLACEMENT_3D ( 'NONE', #113, #171, #87 ) ;
#63 = EDGE_CURVE ( 'NONE', #180, #145, #22, .T. ) ;
#64 = DATE_TIME_ROLE ( 'creation_date' ) ;
#65 = PERSON_AND_ORGANIZATION_ROLE ( 'creator' ) ;
#66 = ORIENTED_EDGE ( 'NONE', *, *, #49, .T. ) ;
#67 = ADVANCED_FACE ( 'NONE', ( #108 ), #3, .T. ) ;
#68 = CALENDAR_DATE ( 2017, 6, 6 ) ;
#69 = ADVANCED_FACE ( 'NONE', ( #15 ), #256, .F. ) ;
#70 = CARTESIAN_POINT ( 'NONE',  ( -12.50000000000000000, 0.0000000000000000000, 12.50000000000000000 ) ) ;
#71 = LOCAL_TIME ( 12, 57, 22.00000000000000000, #187 ) ;
#72 = DESIGN_CONTEXT ( 'detailed design', #13, 'design' ) ;
#73 = ORIENTED_EDGE ( 'NONE', *, *, #287, .F. ) ;
#74 = CC_DESIGN_PERSON_AND_ORGANIZATION_ASSIGNMENT ( #253, #219, ( #21 ) ) ;
#75 = PERSON ( 'UNSPECIFIED', 'UNSPECIFIED', 'UNSPECIFIED', ('UNSPECIFIED'), ('UNSPECIFIED'), ('UNSPECIFIED') ) ;
#76 = EDGE_CURVE ( 'NONE', #48, #296, #200, .T. ) ;
#77 = ORIENTED_EDGE ( 'NONE', *, *, #234, .T. ) ;
#78 = VECTOR ( 'NONE', #286, 1000.000000000000000 ) ;
#79 = CARTESIAN_POINT ( 'NONE',  ( -0.0000000000000000000, 12.50000000000000000, -12.50000000000000000 ) ) ;
#80 = DIRECTION ( 'NONE',  ( 0.0000000000000000000, 1.000000000000000000, -0.0000000000000000000 ) ) ;
#81 = DIRECTION ( 'NONE',  ( 1.000000000000000000, 0.0000000000000000000, 0.0000000000000000000 ) ) ;
#82 = EDGE_CURVE ( 'NONE', #320, #164, #186, .T. ) ;
#83 = DIRECTION ( 'NONE',  ( -0.7071067811865474600, 0.7071067811865474600, 0.0000000000000000000 ) ) ;
#84 = VERTEX_POINT ( 'NONE', #57 ) ;
#85 = ORIENTED_EDGE ( 'NONE', *, *, #46, .T. ) ;
#86 = CARTESIAN_POINT ( 'NONE',  ( 0.0000000000000000000, 12.50000000000000000, 12.50000000000000000 ) ) ;
#87 = DIRECTION ( 'NONE',  ( 1.000000000000000000, 0.0000000000000000000, 0.0000000000000000000 ) ) ;
#88 = ORIENTED_EDGE ( 'NONE', *, *, #98, .T. ) ;
#89 = DIRECTION ( 'NONE',  ( 0.0000000000000000000, 1.000000000000000000, 0.0000000000000000000 ) ) ;
#90 = ORIENTED_EDGE ( 'NONE', *, *, #82, .F. ) ;
#91 = CARTESIAN_POINT ( 'NONE',  ( 0.0000000000000000000, 0.0000000000000000000, 12.50000000000000000 ) ) ;
#92 =( NAMED_UNIT ( * ) PLANE_ANGLE_UNIT ( ) SI_UNIT ( $, .RADIAN. ) );
#93 = PRODUCT_DEFINITION_SHAPE ( 'NONE', 'NONE',  #21 ) ;
#94 = PERSON_AND_ORGANIZATION_ROLE ( 'design_supplier' ) ;
#95 = CC_DESIGN_DATE_AND_TIME_ASSIGNMENT ( #283, #64, ( #21 ) ) ;
#96 = APPROVAL_STATUS ( 'not_yet_approved' ) ;
#97 = ADVANCED_FACE ( 'NONE', ( #59 ), #121, .F. ) ;
#98 = EDGE_CURVE ( 'NONE', #84, #296, #238, .T. ) ;
#99 = ORIENTED_EDGE ( 'NONE', *, *, #98, .F. ) ;
#100 = EDGE_LOOP ( 'NONE', ( #147, #85, #184 ) ) ;
#101 = ADVANCED_FACE ( 'NONE', ( #229 ), #235, .T. ) ;
#102 = LOCAL_TIME ( 12, 57, 22.00000000000000000, #274 ) ;
#103 = VERTEX_POINT ( 'NONE', #281 ) ;
#104 = EDGE_CURVE ( 'NONE', #320, #278, #239, .T. ) ;
#105 = LINE ( 'NONE', #7, #60 ) ;
#106 = PERSON_AND_ORGANIZATION ( #75, #138 ) ;
#107 = ORIENTED_EDGE ( 'NONE', *, *, #63, .F. ) ;
#108 = FACE_OUTER_BOUND ( 'NONE', #297, .T. ) ;
#109 = ORIENTED_EDGE ( 'NONE', *, *, #242, .T. ) ;
#110 = FACE_OUTER_BOUND ( 'NONE', #284, .T. ) ;
#111 = VECTOR ( 'NONE', #257, 1000.000000000000000 ) ;
#112 = CARTESIAN_POINT ( 'NONE',  ( 12.50000000000000000, -12.50000000000000000, 12.50000000000000000 ) ) ;
#113 = CARTESIAN_POINT ( 'NONE',  ( 0.0000000000000000000, 0.0000000000000000000, 12.50000000000000000 ) ) ;
#114 = PRODUCT_DEFINITION_FORMATION_WITH_SPECIFIED_SOURCE ( 'ANY', '', #47, .NOT_KNOWN. ) ;
#115 = CARTESIAN_POINT ( 'NONE',  ( 12.50000000000000000, 0.0000000000000000000, -12.50000000000000000 ) ) ;
#116 = DIRECTION ( 'NONE',  ( -0.0000000000000000000, 0.0000000000000000000, 1.000000000000000000 ) ) ;
#117 = EDGE_LOOP ( 'NONE', ( #300, #20, #308 ) ) ;
#118 = SHAPE_DEFINITION_REPRESENTATION ( #93, #247 ) ;
#119 = CARTESIAN_POINT ( 'NONE',  ( 12.50000000000000000, -12.50000000000000000, -12.50000000000000000 ) ) ;
#120 = EDGE_CURVE ( 'NONE', #103, #298, #26, .T. ) ;
#121 = PLANE ( 'NONE',  #178 ) ;
#122 = CARTESIAN_POINT ( 'NONE',  ( 0.0000000000000000000, 0.0000000000000000000, -12.50000000000000000 ) ) ;
#123 = AXIS2_PLACEMENT_3D ( 'NONE', #304, #116, #30 ) ;
#124 = EDGE_CURVE ( 'NONE', #207, #145, #146, .T. ) ;
#125 = PERSON_AND_ORGANIZATION_ROLE ( 'classification_officer' ) ;
#126 = MANIFOLD_SOLID_BREP ( 'Boss-Extrude3', #25 ) ;
#127 = APPLICATION_PROTOCOL_DEFINITION ( 'international standard', 'config_control_design', 1994, #290 ) ;
#128 = EDGE_LOOP ( 'NONE', ( #14, #107, #16, #160 ) ) ;
#129 = ORIENTED_EDGE ( 'NONE', *, *, #56, .T. ) ;
#130 = ORIENTED_EDGE ( 'NONE', *, *, #134, .F. ) ;
#131 = APPROVAL ( #245, 'UNSPECIFIED' ) ;
#132 = FACE_OUTER_BOUND ( 'NONE', #176, .T. ) ;
#133 = DATE_AND_TIME ( #273, #301 ) ;
#134 = EDGE_CURVE ( 'NONE', #103, #84, #277, .T. ) ;
#135 = EDGE_LOOP ( 'NONE', ( #31, #289, #66, #140 ) ) ;
#136 = DIRECTION ( 'NONE',  ( 0.7071067811865475700, 0.7071067811865475700, -0.0000000000000000000 ) ) ;
#137 = AXIS2_PLACEMENT_3D ( 'NONE', #302, #10, #174 ) ;
#138 = ORGANIZATION ( 'UNSPECIFIED', 'UNSPECIFIED', '' ) ;
#139 = EDGE_LOOP ( 'NONE', ( #204, #192, #43, #181 ) ) ;
#140 = ORIENTED_EDGE ( 'NONE', *, *, #63, .T. ) ;
#141 = DIRECTION ( 'NONE',  ( 0.0000000000000000000, -0.0000000000000000000, 1.000000000000000000 ) ) ;
#142 = DIRECTION ( 'NONE',  ( -0.0000000000000000000, -0.0000000000000000000, -1.000000000000000000 ) ) ;
#143 = CARTESIAN_POINT ( 'NONE',  ( 12.50000000000000000, 12.50000000000000000, 12.50000000000000000 ) ) ;
#144 = CARTESIAN_POINT ( 'NONE',  ( -12.50000000000000000, 12.50000000000000000, 12.50000000000000000 ) ) ;
#145 = VERTEX_POINT ( 'NONE', #303 ) ;
#146 = LINE ( 'NONE', #115, #111 ) ;
#147 = ORIENTED_EDGE ( 'NONE', *, *, #82, .T. ) ;
#148 = CARTESIAN_POINT ( 'NONE',  ( -0.0000000000000000000, 0.0000000000000000000, -12.50000000000000000 ) ) ;
#149 = CARTESIAN_POINT ( 'NONE',  ( 12.50000000000000000, -12.50000000000000000, 12.50000000000000000 ) ) ;
#150 = DIRECTION ( 'NONE',  ( 0.0000000000000000000, 0.0000000000000000000, 1.000000000000000000 ) ) ;
#151 = ORIENTED_EDGE ( 'NONE', *, *, #220, .F. ) ;
#152 = APPROVAL_STATUS ( 'not_yet_approved' ) ;
#153 = CC_DESIGN_APPROVAL ( #131, ( #114 ) ) ;
#154 = APPROVAL_DATE_TIME ( #249, #40 ) ;
#155 = DATE_AND_TIME ( #12, #182 ) ;
#156 = ADVANCED_FACE ( 'NONE', ( #276 ), #28, .T. ) ;
#157 = VECTOR ( 'NONE', #51, 1000.000000000000000 ) ;
#158 = AXIS2_PLACEMENT_3D ( 'NONE', #8, #89, #261 ) ;
#159 = AXIS2_PLACEMENT_3D ( 'NONE', #86, #170, #141 ) ;
#160 = ORIENTED_EDGE ( 'NONE', *, *, #287, .T. ) ;
#161 = VECTOR ( 'NONE', #80, 1000.000000000000000 ) ;
#162 = LINE ( 'NONE', #58, #288 ) ;
#163 = DATE_AND_TIME ( #306, #71 ) ;
#164 = VERTEX_POINT ( 'NONE', #167 ) ;
#165 = COORDINATED_UNIVERSAL_TIME_OFFSET ( 5, 0, .BEHIND. ) ;
#166 = CARTESIAN_POINT ( 'NONE',  ( 0.0000000000000000000, 0.0000000000000000000, 12.50000000000000000 ) ) ;
#167 = CARTESIAN_POINT ( 'NONE',  ( 12.50000000000000000, -12.50000000000000000, 12.50000000000000000 ) ) ;
#168 = CC_DESIGN_PERSON_AND_ORGANIZATION_ASSIGNMENT ( #205, #65, ( #114 ) ) ;
#169 = PERSON_AND_ORGANIZATION ( #75, #138 ) ;
#170 = DIRECTION ( 'NONE',  ( 0.0000000000000000000, 1.000000000000000000, 0.0000000000000000000 ) ) ;
#171 = DIRECTION ( 'NONE',  ( -0.0000000000000000000, 0.0000000000000000000, 1.000000000000000000 ) ) ;
#172 = UNCERTAINTY_MEASURE_WITH_UNIT (LENGTH_MEASURE( 1.000000000000000100E-005 ), #195, 'distance_accuracy_value', 'NONE');
#173 = ORIENTED_EDGE ( 'NONE', *, *, #104, .T. ) ;
#174 = DIRECTION ( 'NONE',  ( 0.0000000000000000000, 0.0000000000000000000, 1.000000000000000000 ) ) ;
#175 = PLANE ( 'NONE',  #218 ) ;
#176 = EDGE_LOOP ( 'NONE', ( #88, #6, #151 ) ) ;
#177 = PERSON_AND_ORGANIZATION_ROLE ( 'design_owner' ) ;
#178 = AXIS2_PLACEMENT_3D ( 'NONE', #262, #259, #236 ) ;
#179 = DIRECTION ( 'NONE',  ( -0.0000000000000000000, 0.0000000000000000000, 1.000000000000000000 ) ) ;
#180 = VERTEX_POINT ( 'NONE', #143 ) ;
#181 = ORIENTED_EDGE ( 'NONE', *, *, #134, .T. ) ;
#182 = LOCAL_TIME ( 12, 57, 22.00000000000000000, #33 ) ;
#183 = CC_DESIGN_PERSON_AND_ORGANIZATION_ASSIGNMENT ( #252, #94, ( #114 ) ) ;
#184 = ORIENTED_EDGE ( 'NONE', *, *, #49, .F. ) ;
#185 = ORIENTED_EDGE ( 'NONE', *, *, #76, .F. ) ;
#186 = LINE ( 'NONE', #307, #226 ) ;
#187 = COORDINATED_UNIVERSAL_TIME_OFFSET ( 5, 0, .BEHIND. ) ;
#188 = CARTESIAN_POINT ( 'NONE',  ( 12.50000000000000000, 0.0000000000000000000, 12.50000000000000000 ) ) ;
#189 = AXIS2_PLACEMENT_3D ( 'NONE', #70, #222, #41 ) ;
#190 = CARTESIAN_POINT ( 'NONE',  ( -12.50000000000000000, 0.0000000000000000000, -12.50000000000000000 ) ) ;
#191 = LINE ( 'NONE', #148, #251 ) ;
#192 = ORIENTED_EDGE ( 'NONE', *, *, #56, .F. ) ;
#193 = APPROVAL_PERSON_ORGANIZATION ( #5, #131, #244 ) ;
#194 = CARTESIAN_POINT ( 'NONE',  ( -12.50000000000000000, 12.50000000000000000, 12.50000000000000000 ) ) ;
#195 =( LENGTH_UNIT ( ) NAMED_UNIT ( * ) SI_UNIT ( .MILLI., .METRE. ) );
#196 = APPLICATION_PROTOCOL_DEFINITION ( 'international standard', 'config_control_design', 1994, #13 ) ;
#197 = SECURITY_CLASSIFICATION ( '', '', #265 ) ;
#198 = LINE ( 'NONE', #61, #309 ) ;
#199 = CARTESIAN_POINT ( 'NONE',  ( -12.50000000000000000, 12.50000000000000000, -12.50000000000000000 ) ) ;
#200 = LINE ( 'NONE', #34, #157 ) ;
#201 = VECTOR ( 'NONE', #29, 1000.000000000000000 ) ;
#202 = ORIENTED_EDGE ( 'NONE', *, *, #254, .T. ) ;
#203 = VERTEX_POINT ( 'NONE', #119 ) ;
#204 = ORIENTED_EDGE ( 'NONE', *, *, #220, .T. ) ;
#205 = PERSON_AND_ORGANIZATION ( #75, #138 ) ;
#206 = ADVANCED_FACE ( 'NONE', ( #266 ), #55, .T. ) ;
#207 = VERTEX_POINT ( 'NONE', #212 ) ;
#208 = PERSON_AND_ORGANIZATION ( #75, #138 ) ;
#209 = ORIENTED_EDGE ( 'NONE', *, *, #35, .T. ) ;
#210 = CARTESIAN_POINT ( 'NONE',  ( -12.50000000000000000, -12.50000000000000000, 12.50000000000000000 ) ) ;
#211 = CC_DESIGN_PERSON_AND_ORGANIZATION_ASSIGNMENT ( #106, #125, ( #197 ) ) ;
#212 = CARTESIAN_POINT ( 'NONE',  ( 12.50000000000000000, -12.50000000000000000, -12.50000000000000000 ) ) ;
#213 = PLANE ( 'NONE',  #189 ) ;
#214 = LINE ( 'NONE', #112, #223 ) ;
#215 = EDGE_LOOP ( 'NONE', ( #99, #130, #109, #1 ) ) ;
#216 = DIRECTION ( 'NONE',  ( 0.7071067811865474600, -0.7071067811865474600, 0.0000000000000000000 ) ) ;
#217 = DIRECTION ( 'NONE',  ( 0.7071067811865475700, 0.7071067811865475700, -0.0000000000000000000 ) ) ;
#218 = AXIS2_PLACEMENT_3D ( 'NONE', #91, #217, #36 ) ;
#219 = PERSON_AND_ORGANIZATION_ROLE ( 'creator' ) ;
#220 = EDGE_CURVE ( 'NONE', #84, #203, #105, .T. ) ;
#221 = COORDINATED_UNIVERSAL_TIME_OFFSET ( 5, 0, .BEHIND. ) ;
#222 = DIRECTION ( 'NONE',  ( -1.000000000000000000, 0.0000000000000000000, 0.0000000000000000000 ) ) ;
#223 = VECTOR ( 'NONE', #233, 1000.000000000000000 ) ;
#224 = ADVANCED_FACE ( 'NONE', ( #270 ), #280, .F. ) ;
#225 = PERSON_AND_ORGANIZATION ( #75, #138 ) ;
#226 = VECTOR ( 'NONE', #216, 1000.000000000000100 ) ;
#227 = CALENDAR_DATE ( 2017, 6, 6 ) ;
#228 = CC_DESIGN_DATE_AND_TIME_ASSIGNMENT ( #163, #292, ( #197 ) ) ;
#229 = FACE_OUTER_BOUND ( 'NONE', #135, .T. ) ;
#230 = DIRECTION ( 'NONE',  ( 1.000000000000000000, 0.0000000000000000000, 0.0000000000000000000 ) ) ;
#231 = CLOSED_SHELL ( 'NONE', ( #248, #224, #67, #156, #316 ) ) ;
#232 =( GEOMETRIC_REPRESENTATION_CONTEXT ( 3 ) GLOBAL_UNCERTAINTY_ASSIGNED_CONTEXT ( ( #172 ) ) GLOBAL_UNIT_ASSIGNED_CONTEXT ( ( #195, #92, #293 ) ) REPRESENTATION_CONTEXT ( 'NONE', 'WORKASPACE' ) );
#233 = DIRECTION ( 'NONE',  ( -0.0000000000000000000, -0.0000000000000000000, -1.000000000000000000 ) ) ;
#234 = EDGE_CURVE ( 'NONE', #48, #298, #267, .T. ) ;
#235 = PLANE ( 'NONE',  #159 ) ;
#236 = DIRECTION ( 'NONE',  ( 1.000000000000000000, 0.0000000000000000000, 0.0000000000000000000 ) ) ;
#237 = VECTOR ( 'NONE', #305, 1000.000000000000100 ) ;
#238 = LINE ( 'NONE', #190, #201 ) ;
#239 = LINE ( 'NONE', #144, #317 ) ;
#240 = DIRECTION ( 'NONE',  ( 1.000000000000000000, 0.0000000000000000000, 0.0000000000000000000 ) ) ;
#241 = DIRECTION ( 'NONE',  ( 0.7071067811865474600, -0.7071067811865474600, 0.0000000000000000000 ) ) ;
#242 = EDGE_CURVE ( 'NONE', #103, #48, #162, .T. ) ;
#243 = APPROVAL_DATE_TIME ( #133, #131 ) ;
#244 = APPROVAL_ROLE ( '' ) ;
#245 = APPROVAL_STATUS ( 'not_yet_approved' ) ;
#246 = APPROVAL ( #152, 'UNSPECIFIED' ) ;
#247 = ADVANCED_BREP_SHAPE_REPRESENTATION ( 'Web Model 47048_47050', ( #312, #126, #313 ), #232 ) ;
#248 = ADVANCED_FACE ( 'NONE', ( #279 ), #213, .T. ) ;
#249 = DATE_AND_TIME ( #68, #102 ) ;
#250 = AXIS2_PLACEMENT_3D ( 'NONE', #122, #179, #38 ) ;
#251 = VECTOR ( 'NONE', #264, 1000.000000000000100 ) ;
#252 = PERSON_AND_ORGANIZATION ( #75, #138 ) ;
#253 = PERSON_AND_ORGANIZATION ( #75, #138 ) ;
#254 = EDGE_CURVE ( 'NONE', #278, #207, #198, .T. ) ;
#255 = CARTESIAN_POINT ( 'NONE',  ( 12.50000000000000000, 12.50000000000000000, 12.50000000000000000 ) ) ;
#256 = PLANE ( 'NONE',  #137 ) ;
#257 = DIRECTION ( 'NONE',  ( 0.0000000000000000000, 1.000000000000000000, -0.0000000000000000000 ) ) ;
#258 = CC_DESIGN_APPROVAL ( #246, ( #197 ) ) ;
#259 = DIRECTION ( 'NONE',  ( -0.0000000000000000000, 0.0000000000000000000, 1.000000000000000000 ) ) ;
#260 = DIRECTION ( 'NONE',  ( 0.0000000000000000000, 1.000000000000000000, -0.0000000000000000000 ) ) ;
#261 = DIRECTION ( 'NONE',  ( 0.0000000000000000000, -0.0000000000000000000, 1.000000000000000000 ) ) ;
#262 = CARTESIAN_POINT ( 'NONE',  ( 0.0000000000000000000, 0.0000000000000000000, -12.50000000000000000 ) ) ;
#263 = VECTOR ( 'NONE', #27, 1000.000000000000000 ) ;
#264 = DIRECTION ( 'NONE',  ( 0.7071067811865474600, -0.7071067811865474600, 0.0000000000000000000 ) ) ;
#265 = SECURITY_CLASSIFICATION_LEVEL ( 'unclassified' ) ;
#266 = FACE_OUTER_BOUND ( 'NONE', #100, .T. ) ;
#267 = LINE ( 'NONE', #32, #237 ) ;
#268 = MECHANICAL_CONTEXT ( 'NONE', #290, 'mechanical' ) ;
#269 = ADVANCED_FACE ( 'NONE', ( #110 ), #175, .F. ) ;
#270 = FACE_OUTER_BOUND ( 'NONE', #139, .T. ) ;
#271 = LINE ( 'NONE', #285, #78 ) ;
#272 = EDGE_CURVE ( 'NONE', #296, #203, #191, .T. ) ;
#273 = CALENDAR_DATE ( 2017, 6, 6 ) ;
#274 = COORDINATED_UNIVERSAL_TIME_OFFSET ( 5, 0, .BEHIND. ) ;
#275 = CC_DESIGN_SECURITY_CLASSIFICATION ( #197, ( #114 ) ) ;
#276 = FACE_OUTER_BOUND ( 'NONE', #117, .T. ) ;
#277 = LINE ( 'NONE', #210, #9 ) ;
#278 = VERTEX_POINT ( 'NONE', #11 ) ;
#279 = FACE_OUTER_BOUND ( 'NONE', #215, .T. ) ;
#280 = PLANE ( 'NONE',  #158 ) ;
#281 = CARTESIAN_POINT ( 'NONE',  ( -12.50000000000000000, -12.50000000000000000, 12.50000000000000000 ) ) ;
#282 = CARTESIAN_POINT ( 'NONE',  ( 0.0000000000000000000, -12.50000000000000000, 12.50000000000000000 ) ) ;
#283 = DATE_AND_TIME ( #227, #291 ) ;
#284 = EDGE_LOOP ( 'NONE', ( #202, #73, #90, #173 ) ) ;
#285 = CARTESIAN_POINT ( 'NONE',  ( 12.50000000000000000, -12.50000000000000000, 12.50000000000000000 ) ) ;
#286 = DIRECTION ( 'NONE',  ( -0.0000000000000000000, -0.0000000000000000000, -1.000000000000000000 ) ) ;
#287 = EDGE_CURVE ( 'NONE', #164, #207, #271, .T. ) ;
#288 = VECTOR ( 'NONE', #260, 1000.000000000000000 ) ;
#289 = ORIENTED_EDGE ( 'NONE', *, *, #104, .F. ) ;
#290 = APPLICATION_CONTEXT ( 'configuration controlled 3d designs of mechanical parts and assemblies' ) ;
#291 = LOCAL_TIME ( 12, 57, 22.00000000000000000, #165 ) ;
#292 = DATE_TIME_ROLE ( 'classification_date' ) ;
#293 =( NAMED_UNIT ( * ) SI_UNIT ( $, .STERADIAN. ) SOLID_ANGLE_UNIT ( ) );
#294 = PRODUCT_RELATED_PRODUCT_CATEGORY ( 'detail', '', ( #47 ) ) ;
#295 = LINE ( 'NONE', #24, #299 ) ;
#296 = VERTEX_POINT ( 'NONE', #199 ) ;
#297 = EDGE_LOOP ( 'NONE', ( #18, #185, #77, #129 ) ) ;
#298 = VERTEX_POINT ( 'NONE', #149 ) ;
#299 = VECTOR ( 'NONE', #81, 1000.000000000000000 ) ;
#300 = ORIENTED_EDGE ( 'NONE', *, *, #242, .F. ) ;
#301 = LOCAL_TIME ( 12, 57, 22.00000000000000000, #221 ) ;
#302 = CARTESIAN_POINT ( 'NONE',  ( 12.50000000000000000, 0.0000000000000000000, 12.50000000000000000 ) ) ;
#303 = CARTESIAN_POINT ( 'NONE',  ( 12.50000000000000000, 12.50000000000000000, -12.50000000000000000 ) ) ;
#304 = CARTESIAN_POINT ( 'NONE',  ( 0.0000000000000000000, 0.0000000000000000000, 12.50000000000000000 ) ) ;
#305 = DIRECTION ( 'NONE',  ( 0.7071067811865474600, -0.7071067811865474600, 0.0000000000000000000 ) ) ;
#306 = CALENDAR_DATE ( 2017, 6, 6 ) ;
#307 = CARTESIAN_POINT ( 'NONE',  ( 0.0000000000000000000, 0.0000000000000000000, 12.50000000000000000 ) ) ;
#308 = ORIENTED_EDGE ( 'NONE', *, *, #234, .F. ) ;
#309 = VECTOR ( 'NONE', #241, 1000.000000000000100 ) ;
#310 = PLANE ( 'NONE',  #250 ) ;
#311 = DIRECTION ( 'NONE',  ( 1.000000000000000000, 0.0000000000000000000, 0.0000000000000000000 ) ) ;
#312 = MANIFOLD_SOLID_BREP ( 'Boss-Extrude2', #231 ) ;
#313 = AXIS2_PLACEMENT_3D ( 'NONE', #315, #150, #311 ) ;
#314 = APPROVAL_ROLE ( '' ) ;
#315 = CARTESIAN_POINT ( 'NONE',  ( 0.0000000000000000000, 0.0000000000000000000, 0.0000000000000000000 ) ) ;
#316 = ADVANCED_FACE ( 'NONE', ( #132 ), #310, .F. ) ;
#317 = VECTOR ( 'NONE', #142, 1000.000000000000000 ) ;
#318 = LINE ( 'NONE', #188, #161 ) ;
#319 = AXIS2_PLACEMENT_3D ( 'NONE', #166, #136, #83 ) ;
#320 = VERTEX_POINT ( 'NONE', #194 ) ;
#321 = LINE ( 'NONE', #79, #23 ) ;
ENDSEC;
END-ISO-10303-21;
