ISO-10303-21;
HEADER;
FILE_DESCRIPTION (( 'STEP AP203' ),
    '1' );
FILE_NAME ('Web Model 83468.STEP',
    '2017-02-01T15:22:12',
    ( '' ),
    ( '' ),
    'SwSTEP 2.0',
    'SolidWorks 2016',
    '' );
FILE_SCHEMA (( 'CONFIG_CONTROL_DESIGN' ));
ENDSEC;

DATA;
#1 = CC_DESIGN_PERSON_AND_ORGANIZATION_ASSIGNMENT ( #88, #62, ( #110 ) ) ;
#2 = DIRECTION ( 'NONE',  ( 1.000000000000000000, 0.0000000000000000000, 0.0000000000000000000 ) ) ;
#3 = LINE ( 'NONE', #32, #61 ) ;
#4 = DIRECTION ( 'NONE',  ( -0.0000000000000000000, -0.0000000000000000000, -1.000000000000000000 ) ) ;
#5 = CARTESIAN_POINT ( 'NONE',  ( 0.0000000000000000000, 0.0000000000000000000, 3.000000000000000000 ) ) ;
#6 = ORIENTED_EDGE ( 'NONE', *, *, #123, .F. ) ;
#7 = VECTOR ( 'NONE', #128, 1000.000000000000000 ) ;
#8 = COORDINATED_UNIVERSAL_TIME_OFFSET ( 5, 0, .BEHIND. ) ;
#9 = DATE_TIME_ROLE ( 'classification_date' ) ;
#10 = CIRCLE ( 'NONE', #113, 6.250000000000000000 ) ;
#11 = ADVANCED_FACE ( 'NONE', ( #142 ), #53, .T. ) ;
#12 = FACE_OUTER_BOUND ( 'NONE', #67, .T. ) ;
#13 = ORIENTED_EDGE ( 'NONE', *, *, #83, .F. ) ;
#14 = MANIFOLD_SOLID_BREP ( 'Extrude1', #43 ) ;
#15 = PRODUCT_DEFINITION_SHAPE ( 'NONE', 'NONE',  #42 ) ;
#16 = APPROVAL_PERSON_ORGANIZATION ( #51, #63, #144 ) ;
#17 = PLANE ( 'NONE',  #25 ) ;
#18 = LOCAL_TIME ( 10, 22, 12.00000000000000000, #8 ) ;
#19 = PLANE ( 'NONE',  #175 ) ;
#20 = APPLICATION_CONTEXT ( 'configuration controlled 3d designs of mechanical parts and assemblies' ) ;
#21 = DATE_AND_TIME ( #55, #96 ) ;
#22 = CARTESIAN_POINT ( 'NONE',  ( -6.250000000000000000, 0.0000000000000000000, 3.000000000000000000 ) ) ;
#23 = APPROVAL_STATUS ( 'not_yet_approved' ) ;
#24 = ORIENTED_EDGE ( 'NONE', *, *, #132, .F. ) ;
#25 = AXIS2_PLACEMENT_3D ( 'NONE', #154, #86, #44 ) ;
#26 = CIRCLE ( 'NONE', #80, 6.250000000000000000 ) ;
#27 = EDGE_CURVE ( 'NONE', #161, #146, #10, .T. ) ;
#28 = COORDINATED_UNIVERSAL_TIME_OFFSET ( 5, 0, .BEHIND. ) ;
#29 = CARTESIAN_POINT ( 'NONE',  ( -6.250000000000000000, 0.0000000000000000000, 3.000000000000000000 ) ) ;
#30 = CC_DESIGN_PERSON_AND_ORGANIZATION_ASSIGNMENT ( #45, #119, ( #42 ) ) ;
#31 = CC_DESIGN_APPROVAL ( #160, ( #139 ) ) ;
#32 = CARTESIAN_POINT ( 'NONE',  ( 6.250000000000000000, 7.654042494670957600E-016, 3.000000000000000000 ) ) ;
#33 = CARTESIAN_POINT ( 'NONE',  ( 0.0000000000000000000, 0.0000000000000000000, 0.0000000000000000000 ) ) ;
#34 = DIRECTION ( 'NONE',  ( -0.0000000000000000000, -0.0000000000000000000, -1.000000000000000000 ) ) ;
#35 = VERTEX_POINT ( 'NONE', #152 ) ;
#36 = SECURITY_CLASSIFICATION_LEVEL ( 'unclassified' ) ;
#37 = APPROVAL_ROLE ( '' ) ;
#38 = AXIS2_PLACEMENT_3D ( 'NONE', #107, #145, #168 ) ;
#39 = AXIS2_PLACEMENT_3D ( 'NONE', #40, #89, #77 ) ;
#40 = CARTESIAN_POINT ( 'NONE',  ( 0.0000000000000000000, 0.0000000000000000000, 0.0000000000000000000 ) ) ;
#41 = FACE_OUTER_BOUND ( 'NONE', #47, .T. ) ;
#42 = PRODUCT_DEFINITION ( 'UNKNOWN', '', #100, #68 ) ;
#43 = CLOSED_SHELL ( 'NONE', ( #11, #121, #79, #90 ) ) ;
#44 = DIRECTION ( 'NONE',  ( 1.000000000000000000, 0.0000000000000000000, -0.0000000000000000000 ) ) ;
#45 = PERSON_AND_ORGANIZATION ( #120, #126 ) ;
#46 = ADVANCED_BREP_SHAPE_REPRESENTATION ( 'Web Model 83468', ( #14, #39 ), #167 ) ;
#47 = EDGE_LOOP ( 'NONE', ( #76, #87 ) ) ;
#48 = LOCAL_TIME ( 10, 22, 12.00000000000000000, #125 ) ;
#49 = PERSON_AND_ORGANIZATION_ROLE ( 'classification_officer' ) ;
#50 = APPLICATION_PROTOCOL_DEFINITION ( 'international standard', 'config_control_design', 1994, #133 ) ;
#51 = PERSON_AND_ORGANIZATION ( #120, #126 ) ;
#52 = LOCAL_TIME ( 10, 22, 12.00000000000000000, #94 ) ;
#53 = CYLINDRICAL_SURFACE ( 'NONE', #92, 6.250000000000000000 ) ;
#54 = ORIENTED_EDGE ( 'NONE', *, *, #83, .T. ) ;
#55 = CALENDAR_DATE ( 2017, 1, 2 ) ;
#56 = DIRECTION ( 'NONE',  ( -0.0000000000000000000, -0.0000000000000000000, -1.000000000000000000 ) ) ;
#57 = APPROVAL_DATE_TIME ( #21, #160 ) ;
#58 = DIRECTION ( 'NONE',  ( 0.0000000000000000000, 0.0000000000000000000, 1.000000000000000000 ) ) ;
#59 = DIRECTION ( 'NONE',  ( 0.0000000000000000000, 0.0000000000000000000, 1.000000000000000000 ) ) ;
#60 = CALENDAR_DATE ( 2017, 1, 2 ) ;
#61 = VECTOR ( 'NONE', #4, 1000.000000000000000 ) ;
#62 = PERSON_AND_ORGANIZATION_ROLE ( 'design_owner' ) ;
#63 = APPROVAL ( #23, 'UNSPECIFIED' ) ;
#64 = CARTESIAN_POINT ( 'NONE',  ( 6.250000000000000000, 7.654042494670957600E-016, 0.0000000000000000000 ) ) ;
#65 = PERSON_AND_ORGANIZATION_ROLE ( 'creator' ) ;
#66 = DIRECTION ( 'NONE',  ( 0.0000000000000000000, 0.0000000000000000000, 1.000000000000000000 ) ) ;
#67 = EDGE_LOOP ( 'NONE', ( #153, #122 ) ) ;
#68 = DESIGN_CONTEXT ( 'detailed design', #20, 'design' ) ;
#69 = CALENDAR_DATE ( 2017, 1, 2 ) ;
#70 = CALENDAR_DATE ( 2017, 1, 2 ) ;
#71 = ORIENTED_EDGE ( 'NONE', *, *, #27, .F. ) ;
#72 = CC_DESIGN_DATE_AND_TIME_ASSIGNMENT ( #162, #108, ( #42 ) ) ;
#73 = AXIS2_PLACEMENT_3D ( 'NONE', #33, #104, #141 ) ;
#74 = CIRCLE ( 'NONE', #38, 6.250000000000000000 ) ;
#75 = DIRECTION ( 'NONE',  ( 1.000000000000000000, 0.0000000000000000000, -0.0000000000000000000 ) ) ;
#76 = ORIENTED_EDGE ( 'NONE', *, *, #132, .T. ) ;
#77 = DIRECTION ( 'NONE',  ( 1.000000000000000000, 0.0000000000000000000, 0.0000000000000000000 ) ) ;
#78 = APPROVAL_ROLE ( '' ) ;
#79 = ADVANCED_FACE ( 'NONE', ( #41 ), #19, .T. ) ;
#80 = AXIS2_PLACEMENT_3D ( 'NONE', #170, #66, #156 ) ;
#81 = UNCERTAINTY_MEASURE_WITH_UNIT (LENGTH_MEASURE( 1.000000000000000100E-005 ), #91, 'distance_accuracy_value', 'NONE');
#82 = EDGE_CURVE ( 'NONE', #35, #131, #130, .T. ) ;
#83 = EDGE_CURVE ( 'NONE', #146, #35, #124, .T. ) ;
#84 = CARTESIAN_POINT ( 'NONE',  ( 0.0000000000000000000, 0.0000000000000000000, 3.000000000000000000 ) ) ;
#85 = APPROVAL ( #118, 'UNSPECIFIED' ) ;
#86 = DIRECTION ( 'NONE',  ( 0.0000000000000000000, 0.0000000000000000000, 1.000000000000000000 ) ) ;
#87 = ORIENTED_EDGE ( 'NONE', *, *, #27, .T. ) ;
#88 = PERSON_AND_ORGANIZATION ( #120, #126 ) ;
#89 = DIRECTION ( 'NONE',  ( 0.0000000000000000000, 0.0000000000000000000, 1.000000000000000000 ) ) ;
#90 = ADVANCED_FACE ( 'NONE', ( #12 ), #17, .F. ) ;
#91 =( LENGTH_UNIT ( ) NAMED_UNIT ( * ) SI_UNIT ( .MILLI., .METRE. ) );
#92 = AXIS2_PLACEMENT_3D ( 'NONE', #116, #34, #151 ) ;
#93 =( NAMED_UNIT ( * ) SI_UNIT ( $, .STERADIAN. ) SOLID_ANGLE_UNIT ( ) );
#94 = COORDINATED_UNIVERSAL_TIME_OFFSET ( 5, 0, .BEHIND. ) ;
#95 = SHAPE_DEFINITION_REPRESENTATION ( #15, #46 ) ;
#96 = LOCAL_TIME ( 10, 22, 12.00000000000000000, #137 ) ;
#97 = PRODUCT_RELATED_PRODUCT_CATEGORY ( 'detail', '', ( #110 ) ) ;
#98 = CC_DESIGN_APPROVAL ( #85, ( #100 ) ) ;
#99 = FACE_OUTER_BOUND ( 'NONE', #112, .T. ) ;
#100 = PRODUCT_DEFINITION_FORMATION_WITH_SPECIFIED_SOURCE ( 'ANY', '', #110, .NOT_KNOWN. ) ;
#101 = CARTESIAN_POINT ( 'NONE',  ( 0.0000000000000000000, 0.0000000000000000000, 3.000000000000000000 ) ) ;
#102 = PERSON_AND_ORGANIZATION ( #120, #126 ) ;
#103 = ORIENTED_EDGE ( 'NONE', *, *, #82, .T. ) ;
#104 = DIRECTION ( 'NONE',  ( 0.0000000000000000000, 0.0000000000000000000, 1.000000000000000000 ) ) ;
#105 = APPLICATION_PROTOCOL_DEFINITION ( 'international standard', 'config_control_design', 1994, #20 ) ;
#106 = EDGE_LOOP ( 'NONE', ( #71, #148, #117, #13 ) ) ;
#107 = CARTESIAN_POINT ( 'NONE',  ( 0.0000000000000000000, 0.0000000000000000000, 0.0000000000000000000 ) ) ;
#108 = DATE_TIME_ROLE ( 'creation_date' ) ;
#109 = APPROVAL_STATUS ( 'not_yet_approved' ) ;
#110 = PRODUCT ( 'Web Model 83468', 'Web Model 83468', '', ( #157 ) ) ;
#111 = CC_DESIGN_PERSON_AND_ORGANIZATION_ASSIGNMENT ( #166, #158, ( #100 ) ) ;
#112 = EDGE_LOOP ( 'NONE', ( #6, #24, #54, #103 ) ) ;
#113 = AXIS2_PLACEMENT_3D ( 'NONE', #84, #59, #2 ) ;
#114 = AXIS2_PLACEMENT_3D ( 'NONE', #5, #56, #150 ) ;
#115 = CC_DESIGN_DATE_AND_TIME_ASSIGNMENT ( #171, #9, ( #139 ) ) ;
#116 = CARTESIAN_POINT ( 'NONE',  ( 0.0000000000000000000, 0.0000000000000000000, 3.000000000000000000 ) ) ;
#117 = ORIENTED_EDGE ( 'NONE', *, *, #129, .T. ) ;
#118 = APPROVAL_STATUS ( 'not_yet_approved' ) ;
#119 = PERSON_AND_ORGANIZATION_ROLE ( 'creator' ) ;
#120 = PERSON ( 'UNSPECIFIED', 'UNSPECIFIED', 'UNSPECIFIED', ('UNSPECIFIED'), ('UNSPECIFIED'), ('UNSPECIFIED') ) ;
#121 = ADVANCED_FACE ( 'NONE', ( #99 ), #165, .T. ) ;
#122 = ORIENTED_EDGE ( 'NONE', *, *, #129, .F. ) ;
#123 = EDGE_CURVE ( 'NONE', #161, #131, #3, .T. ) ;
#124 = LINE ( 'NONE', #29, #7 ) ;
#125 = COORDINATED_UNIVERSAL_TIME_OFFSET ( 5, 0, .BEHIND. ) ;
#126 = ORGANIZATION ( 'UNSPECIFIED', 'UNSPECIFIED', '' ) ;
#127 = CC_DESIGN_PERSON_AND_ORGANIZATION_ASSIGNMENT ( #102, #65, ( #100 ) ) ;
#128 = DIRECTION ( 'NONE',  ( -0.0000000000000000000, -0.0000000000000000000, -1.000000000000000000 ) ) ;
#129 = EDGE_CURVE ( 'NONE', #131, #35, #74, .T. ) ;
#130 = CIRCLE ( 'NONE', #73, 6.250000000000000000 ) ;
#131 = VERTEX_POINT ( 'NONE', #64 ) ;
#132 = EDGE_CURVE ( 'NONE', #146, #161, #26, .T. ) ;
#133 = APPLICATION_CONTEXT ( 'configuration controlled 3d designs of mechanical parts and assemblies' ) ;
#134 = APPROVAL_PERSON_ORGANIZATION ( #138, #160, #37 ) ;
#135 = PERSON_AND_ORGANIZATION ( #120, #126 ) ;
#136 = DATE_AND_TIME ( #69, #48 ) ;
#137 = COORDINATED_UNIVERSAL_TIME_OFFSET ( 5, 0, .BEHIND. ) ;
#138 = PERSON_AND_ORGANIZATION ( #120, #126 ) ;
#139 = SECURITY_CLASSIFICATION ( '', '', #36 ) ;
#140 = CC_DESIGN_APPROVAL ( #63, ( #42 ) ) ;
#141 = DIRECTION ( 'NONE',  ( 1.000000000000000000, 0.0000000000000000000, 0.0000000000000000000 ) ) ;
#142 = FACE_OUTER_BOUND ( 'NONE', #106, .T. ) ;
#143 = CARTESIAN_POINT ( 'NONE',  ( 6.250000000000000000, 7.654042494670957600E-016, 3.000000000000000000 ) ) ;
#144 = APPROVAL_ROLE ( '' ) ;
#145 = DIRECTION ( 'NONE',  ( 0.0000000000000000000, 0.0000000000000000000, 1.000000000000000000 ) ) ;
#146 = VERTEX_POINT ( 'NONE', #22 ) ;
#147 = APPROVAL_PERSON_ORGANIZATION ( #155, #85, #78 ) ;
#148 = ORIENTED_EDGE ( 'NONE', *, *, #123, .T. ) ;
#149 = CC_DESIGN_PERSON_AND_ORGANIZATION_ASSIGNMENT ( #135, #49, ( #139 ) ) ;
#150 = DIRECTION ( 'NONE',  ( -1.000000000000000000, 0.0000000000000000000, 0.0000000000000000000 ) ) ;
#151 = DIRECTION ( 'NONE',  ( -1.000000000000000000, 0.0000000000000000000, 0.0000000000000000000 ) ) ;
#152 = CARTESIAN_POINT ( 'NONE',  ( -6.250000000000000000, 0.0000000000000000000, 0.0000000000000000000 ) ) ;
#153 = ORIENTED_EDGE ( 'NONE', *, *, #82, .F. ) ;
#154 = CARTESIAN_POINT ( 'NONE',  ( 0.0000000000000000000, 0.0000000000000000000, 0.0000000000000000000 ) ) ;
#155 = PERSON_AND_ORGANIZATION ( #120, #126 ) ;
#156 = DIRECTION ( 'NONE',  ( 1.000000000000000000, 0.0000000000000000000, 0.0000000000000000000 ) ) ;
#157 = MECHANICAL_CONTEXT ( 'NONE', #133, 'mechanical' ) ;
#158 = PERSON_AND_ORGANIZATION_ROLE ( 'design_supplier' ) ;
#159 = CALENDAR_DATE ( 2017, 1, 2 ) ;
#160 = APPROVAL ( #109, 'UNSPECIFIED' ) ;
#161 = VERTEX_POINT ( 'NONE', #143 ) ;
#162 = DATE_AND_TIME ( #60, #172 ) ;
#163 = APPROVAL_DATE_TIME ( #136, #63 ) ;
#164 = DATE_AND_TIME ( #70, #18 ) ;
#165 = CYLINDRICAL_SURFACE ( 'NONE', #114, 6.250000000000000000 ) ;
#166 = PERSON_AND_ORGANIZATION ( #120, #126 ) ;
#167 =( GEOMETRIC_REPRESENTATION_CONTEXT ( 3 ) GLOBAL_UNCERTAINTY_ASSIGNED_CONTEXT ( ( #81 ) ) GLOBAL_UNIT_ASSIGNED_CONTEXT ( ( #91, #169, #93 ) ) REPRESENTATION_CONTEXT ( 'NONE', 'WORKASPACE' ) );
#168 = DIRECTION ( 'NONE',  ( 1.000000000000000000, 0.0000000000000000000, 0.0000000000000000000 ) ) ;
#169 =( NAMED_UNIT ( * ) PLANE_ANGLE_UNIT ( ) SI_UNIT ( $, .RADIAN. ) );
#170 = CARTESIAN_POINT ( 'NONE',  ( 0.0000000000000000000, 0.0000000000000000000, 3.000000000000000000 ) ) ;
#171 = DATE_AND_TIME ( #159, #52 ) ;
#172 = LOCAL_TIME ( 10, 22, 12.00000000000000000, #28 ) ;
#173 = CC_DESIGN_SECURITY_CLASSIFICATION ( #139, ( #100 ) ) ;
#174 = APPROVAL_DATE_TIME ( #164, #85 ) ;
#175 = AXIS2_PLACEMENT_3D ( 'NONE', #101, #58, #75 ) ;
ENDSEC;
END-ISO-10303-21;
