ISO-10303-21;
HEADER;
FILE_DESCRIPTION (( 'STEP AP203' ),
    '1' );
FILE_NAME ('Web Model 48543_48543.step',
    '2019-01-28T19:15:46',
    ( '' ),
    ( '' ),
    'SwSTEP 2.0',
    'SolidWorks 2016',
    '' );
FILE_SCHEMA (( 'CONFIG_CONTROL_DESIGN' ));
ENDSEC;

DATA;
#1 = PRODUCT_DEFINITION_SHAPE ( 'NONE', 'NONE',  #78 ) ;
#2 = CC_DESIGN_APPROVAL ( #101, ( #78 ) ) ;
#3 = CC_DESIGN_DATE_AND_TIME_ASSIGNMENT ( #210, #131, ( #47 ) ) ;
#4 = CARTESIAN_POINT ( 'NONE',  ( -24.99999999999999300, 25.00000000000000000, 1.649999999999999900 ) ) ;
#5 = ORIENTED_EDGE ( 'NONE', *, *, #65, .F. ) ;
#6 = PERSON_AND_ORGANIZATION_ROLE ( 'creator' ) ;
#7 = ORIENTED_EDGE ( 'NONE', *, *, #19, .T. ) ;
#8 = ORIENTED_EDGE ( 'NONE', *, *, #10, .T. ) ;
#9 = ORIENTED_EDGE ( 'NONE', *, *, #167, .T. ) ;
#10 = EDGE_CURVE ( 'NONE', #63, #122, #80, .T. ) ;
#11 = CARTESIAN_POINT ( 'NONE',  ( 25.00000000000000700, -25.00000000000000000, -1.649999999999999900 ) ) ;
#12 = DATE_AND_TIME ( #217, #234 ) ;
#13 = PRODUCT_DEFINITION_FORMATION_WITH_SPECIFIED_SOURCE ( 'ANY', '', #189, .NOT_KNOWN. ) ;
#14 = LINE ( 'NONE', #215, #169 ) ;
#15 = ORIENTED_EDGE ( 'NONE', *, *, #184, .T. ) ;
#16 = ADVANCED_FACE ( 'NONE', ( #146 ), #153, .F. ) ;
#17 = PLANE ( 'NONE',  #93 ) ;
#18 = LINE ( 'NONE', #216, #218 ) ;
#19 = EDGE_CURVE ( 'NONE', #83, #70, #14, .T. ) ;
#20 = PLANE ( 'NONE',  #116 ) ;
#21 = ADVANCED_FACE ( 'NONE', ( #133 ), #212, .F. ) ;
#22 = VECTOR ( 'NONE', #85, 1000.000000000000000 ) ;
#23 = ORIENTED_EDGE ( 'NONE', *, *, #123, .F. ) ;
#24 = CARTESIAN_POINT ( 'NONE',  ( 25.00000000000000700, -25.00000000000000000, 1.649999999999999900 ) ) ;
#25 = AXIS2_PLACEMENT_3D ( 'NONE', #136, #120, #195 ) ;
#26 = CC_DESIGN_SECURITY_CLASSIFICATION ( #47, ( #13 ) ) ;
#27 = PERSON_AND_ORGANIZATION_ROLE ( 'design_supplier' ) ;
#28 = PERSON_AND_ORGANIZATION ( #48, #229 ) ;
#29 = VECTOR ( 'NONE', #38, 1000.000000000000000 ) ;
#30 = APPROVAL ( #207, 'UNSPECIFIED' ) ;
#31 = FACE_OUTER_BOUND ( 'NONE', #110, .T. ) ;
#32 = DIRECTION ( 'NONE',  ( 1.000000000000000000, 0.0000000000000000000, 0.0000000000000000000 ) ) ;
#33 = CARTESIAN_POINT ( 'NONE',  ( -24.99999999999999300, -25.00000000000000000, -1.649999999999999900 ) ) ;
#34 = CARTESIAN_POINT ( 'NONE',  ( 25.00000000000000700, 25.00000000000000000, -1.649999999999999900 ) ) ;
#35 = APPROVAL_PERSON_ORGANIZATION ( #43, #164, #148 ) ;
#36 = LINE ( 'NONE', #33, #179 ) ;
#37 = PRODUCT_RELATED_PRODUCT_CATEGORY ( 'detail', '', ( #189 ) ) ;
#38 = DIRECTION ( 'NONE',  ( -0.0000000000000000000, -0.0000000000000000000, -1.000000000000000000 ) ) ;
#39 = PERSON_AND_ORGANIZATION_ROLE ( 'design_owner' ) ;
#40 = ORIENTED_EDGE ( 'NONE', *, *, #209, .T. ) ;
#41 = ORIENTED_EDGE ( 'NONE', *, *, #46, .F. ) ;
#42 = PERSON_AND_ORGANIZATION_ROLE ( 'creator' ) ;
#43 = PERSON_AND_ORGANIZATION ( #48, #229 ) ;
#44 = VERTEX_POINT ( 'NONE', #140 ) ;
#45 = MANIFOLD_SOLID_BREP ( 'Boss-Extrude1', #117 ) ;
#46 = EDGE_CURVE ( 'NONE', #70, #63, #227, .T. ) ;
#47 = SECURITY_CLASSIFICATION ( '', '', #112 ) ;
#48 = PERSON ( 'UNSPECIFIED', 'UNSPECIFIED', 'UNSPECIFIED', ('UNSPECIFIED'), ('UNSPECIFIED'), ('UNSPECIFIED') ) ;
#49 = DIRECTION ( 'NONE',  ( 0.0000000000000000000, 0.0000000000000000000, -1.000000000000000000 ) ) ;
#50 = COORDINATED_UNIVERSAL_TIME_OFFSET ( 5, 0, .BEHIND. ) ;
#51 = CARTESIAN_POINT ( 'NONE',  ( 25.00000000000000700, -25.00000000000000000, 1.649999999999999900 ) ) ;
#52 = AXIS2_PLACEMENT_3D ( 'NONE', #160, #57, #182 ) ;
#53 = ADVANCED_FACE ( 'NONE', ( #77 ), #17, .F. ) ;
#54 = ORIENTED_EDGE ( 'NONE', *, *, #209, .F. ) ;
#55 = DIRECTION ( 'NONE',  ( -0.0000000000000000000, -1.000000000000000000, -0.0000000000000000000 ) ) ;
#56 = DIRECTION ( 'NONE',  ( 0.0000000000000000000, 0.0000000000000000000, -1.000000000000000000 ) ) ;
#57 = DIRECTION ( 'NONE',  ( 0.0000000000000000000, 0.0000000000000000000, 1.000000000000000000 ) ) ;
#58 = DATE_AND_TIME ( #178, #62 ) ;
#59 = FACE_OUTER_BOUND ( 'NONE', #197, .T. ) ;
#60 = CARTESIAN_POINT ( 'NONE',  ( -24.99999999999999300, 25.00000000000000000, 1.649999999999999900 ) ) ;
#61 = AXIS2_PLACEMENT_3D ( 'NONE', #151, #193, #49 ) ;
#62 = LOCAL_TIME ( 14, 15, 46.00000000000000000, #201 ) ;
#63 = VERTEX_POINT ( 'NONE', #11 ) ;
#64 = ORIENTED_EDGE ( 'NONE', *, *, #192, .F. ) ;
#65 = EDGE_CURVE ( 'NONE', #191, #67, #172, .T. ) ;
#66 = VECTOR ( 'NONE', #89, 1000.000000000000000 ) ;
#67 = VERTEX_POINT ( 'NONE', #233 ) ;
#68 = CC_DESIGN_PERSON_AND_ORGANIZATION_ASSIGNMENT ( #82, #39, ( #189 ) ) ;
#69 = PERSON_AND_ORGANIZATION ( #48, #229 ) ;
#70 = VERTEX_POINT ( 'NONE', #157 ) ;
#71 = CARTESIAN_POINT ( 'NONE',  ( -24.99999999999999300, 25.00000000000000000, 1.649999999999999900 ) ) ;
#72 = CARTESIAN_POINT ( 'NONE',  ( -24.99999999999999300, -25.00000000000000000, 1.649999999999999900 ) ) ;
#73 = DATE_AND_TIME ( #104, #196 ) ;
#74 = LOCAL_TIME ( 14, 15, 46.00000000000000000, #50 ) ;
#75 = APPLICATION_CONTEXT ( 'configuration controlled 3d designs of mechanical parts and assemblies' ) ;
#76 = CARTESIAN_POINT ( 'NONE',  ( -24.99999999999999300, 25.00000000000000000, -1.649999999999999900 ) ) ;
#77 = FACE_OUTER_BOUND ( 'NONE', #190, .T. ) ;
#78 = PRODUCT_DEFINITION ( 'UNKNOWN', '', #13, #168 ) ;
#79 = APPLICATION_PROTOCOL_DEFINITION ( 'international standard', 'config_control_design', 1994, #183 ) ;
#80 = LINE ( 'NONE', #231, #152 ) ;
#81 = CC_DESIGN_APPROVAL ( #164, ( #47 ) ) ;
#82 = PERSON_AND_ORGANIZATION ( #48, #229 ) ;
#83 = VERTEX_POINT ( 'NONE', #126 ) ;
#84 = ORIENTED_EDGE ( 'NONE', *, *, #46, .T. ) ;
#85 = DIRECTION ( 'NONE',  ( -0.0000000000000000000, -0.0000000000000000000, -1.000000000000000000 ) ) ;
#86 = ADVANCED_BREP_SHAPE_REPRESENTATION ( 'Web Model 48543_48543', ( #45, #52 ), #163 ) ;
#87 = PLANE ( 'NONE',  #206 ) ;
#88 = DIRECTION ( 'NONE',  ( -1.000000000000000000, -0.0000000000000000000, -0.0000000000000000000 ) ) ;
#89 = DIRECTION ( 'NONE',  ( -0.0000000000000000000, -0.0000000000000000000, -1.000000000000000000 ) ) ;
#90 = LINE ( 'NONE', #24, #125 ) ;
#91 = DIRECTION ( 'NONE',  ( 0.0000000000000000000, 1.000000000000000000, 0.0000000000000000000 ) ) ;
#92 = ORIENTED_EDGE ( 'NONE', *, *, #184, .F. ) ;
#93 = AXIS2_PLACEMENT_3D ( 'NONE', #51, #176, #135 ) ;
#94 = APPROVAL_PERSON_ORGANIZATION ( #149, #30, #95 ) ;
#95 = APPROVAL_ROLE ( '' ) ;
#96 = CC_DESIGN_PERSON_AND_ORGANIZATION_ASSIGNMENT ( #28, #6, ( #13 ) ) ;
#97 = ORIENTED_EDGE ( 'NONE', *, *, #236, .T. ) ;
#98 = ORIENTED_EDGE ( 'NONE', *, *, #167, .F. ) ;
#99 = CC_DESIGN_PERSON_AND_ORGANIZATION_ASSIGNMENT ( #100, #27, ( #13 ) ) ;
#100 = PERSON_AND_ORGANIZATION ( #48, #229 ) ;
#101 = APPROVAL ( #129, 'UNSPECIFIED' ) ;
#102 = LINE ( 'NONE', #4, #185 ) ;
#103 = VERTEX_POINT ( 'NONE', #127 ) ;
#104 = CALENDAR_DATE ( 2019, 28, 1 ) ;
#105 = DIRECTION ( 'NONE',  ( -0.0000000000000000000, -0.0000000000000000000, -1.000000000000000000 ) ) ;
#106 = ADVANCED_FACE ( 'NONE', ( #31 ), #155, .T. ) ;
#107 =( NAMED_UNIT ( * ) SI_UNIT ( $, .STERADIAN. ) SOLID_ANGLE_UNIT ( ) );
#108 = COORDINATED_UNIVERSAL_TIME_OFFSET ( 5, 0, .BEHIND. ) ;
#109 = ORIENTED_EDGE ( 'NONE', *, *, #236, .F. ) ;
#110 = EDGE_LOOP ( 'NONE', ( #235, #54, #174, #92 ) ) ;
#111 = MECHANICAL_CONTEXT ( 'NONE', #75, 'mechanical' ) ;
#112 = SECURITY_CLASSIFICATION_LEVEL ( 'unclassified' ) ;
#113 = ORIENTED_EDGE ( 'NONE', *, *, #221, .F. ) ;
#114 = APPROVAL_DATE_TIME ( #115, #101 ) ;
#115 = DATE_AND_TIME ( #159, #74 ) ;
#116 = AXIS2_PLACEMENT_3D ( 'NONE', #72, #91, #143 ) ;
#117 = CLOSED_SHELL ( 'NONE', ( #53, #16, #21, #121, #141, #106 ) ) ;
#118 = COORDINATED_UNIVERSAL_TIME_OFFSET ( 5, 0, .BEHIND. ) ;
#119 = APPROVAL_PERSON_ORGANIZATION ( #226, #101, #130 ) ;
#120 = DIRECTION ( 'NONE',  ( 0.0000000000000000000, -1.000000000000000000, 0.0000000000000000000 ) ) ;
#121 = ADVANCED_FACE ( 'NONE', ( #59 ), #20, .F. ) ;
#122 = VERTEX_POINT ( 'NONE', #34 ) ;
#123 = EDGE_CURVE ( 'NONE', #191, #83, #18, .T. ) ;
#124 = DIRECTION ( 'NONE',  ( -0.0000000000000000000, -1.000000000000000000, -0.0000000000000000000 ) ) ;
#125 = VECTOR ( 'NONE', #145, 1000.000000000000000 ) ;
#126 = CARTESIAN_POINT ( 'NONE',  ( -24.99999999999999300, -25.00000000000000000, 1.649999999999999900 ) ) ;
#127 = CARTESIAN_POINT ( 'NONE',  ( -24.99999999999999300, -25.00000000000000000, -1.649999999999999900 ) ) ;
#128 = SHAPE_DEFINITION_REPRESENTATION ( #1, #86 ) ;
#129 = APPROVAL_STATUS ( 'not_yet_approved' ) ;
#130 = APPROVAL_ROLE ( '' ) ;
#131 = DATE_TIME_ROLE ( 'classification_date' ) ;
#132 = VECTOR ( 'NONE', #181, 1000.000000000000000 ) ;
#133 = FACE_OUTER_BOUND ( 'NONE', #134, .T. ) ;
#134 = EDGE_LOOP ( 'NONE', ( #150, #109, #23, #228 ) ) ;
#135 = DIRECTION ( 'NONE',  ( 0.0000000000000000000, 0.0000000000000000000, 1.000000000000000000 ) ) ;
#136 = CARTESIAN_POINT ( 'NONE',  ( -24.99999999999999300, 25.00000000000000000, 1.649999999999999900 ) ) ;
#137 = LINE ( 'NONE', #76, #132 ) ;
#138 = EDGE_LOOP ( 'NONE', ( #15, #5, #64, #9 ) ) ;
#139 = AXIS2_PLACEMENT_3D ( 'NONE', #144, #161, #205 ) ;
#140 = CARTESIAN_POINT ( 'NONE',  ( 25.00000000000000700, 25.00000000000000000, 1.649999999999999900 ) ) ;
#141 = ADVANCED_FACE ( 'NONE', ( #202 ), #87, .F. ) ;
#142 = PERSON_AND_ORGANIZATION ( #48, #229 ) ;
#143 = DIRECTION ( 'NONE',  ( 0.0000000000000000000, -0.0000000000000000000, 1.000000000000000000 ) ) ;
#144 = CARTESIAN_POINT ( 'NONE',  ( 0.0000000000000000000, 0.0000000000000000000, -1.649999999999999900 ) ) ;
#145 = DIRECTION ( 'NONE',  ( 0.0000000000000000000, 1.000000000000000000, 0.0000000000000000000 ) ) ;
#146 = FACE_OUTER_BOUND ( 'NONE', #138, .T. ) ;
#147 = EDGE_CURVE ( 'NONE', #67, #103, #211, .T. ) ;
#148 = APPROVAL_ROLE ( '' ) ;
#149 = PERSON_AND_ORGANIZATION ( #48, #229 ) ;
#150 = ORIENTED_EDGE ( 'NONE', *, *, #147, .T. ) ;
#151 = CARTESIAN_POINT ( 'NONE',  ( -24.99999999999999300, -25.00000000000000000, 1.649999999999999900 ) ) ;
#152 = VECTOR ( 'NONE', #173, 1000.000000000000000 ) ;
#153 = PLANE ( 'NONE',  #25 ) ;
#154 = LINE ( 'NONE', #180, #66 ) ;
#155 = PLANE ( 'NONE',  #139 ) ;
#156 = CARTESIAN_POINT ( 'NONE',  ( -24.99999999999999300, -25.00000000000000000, -1.649999999999999900 ) ) ;
#157 = CARTESIAN_POINT ( 'NONE',  ( 25.00000000000000700, -25.00000000000000000, 1.649999999999999900 ) ) ;
#158 = CALENDAR_DATE ( 2019, 28, 1 ) ;
#159 = CALENDAR_DATE ( 2019, 28, 1 ) ;
#160 = CARTESIAN_POINT ( 'NONE',  ( 0.0000000000000000000, 0.0000000000000000000, 0.0000000000000000000 ) ) ;
#161 = DIRECTION ( 'NONE',  ( 0.0000000000000000000, 0.0000000000000000000, -1.000000000000000000 ) ) ;
#162 = APPROVAL_STATUS ( 'not_yet_approved' ) ;
#163 =( GEOMETRIC_REPRESENTATION_CONTEXT ( 3 ) GLOBAL_UNCERTAINTY_ASSIGNED_CONTEXT ( ( #170 ) ) GLOBAL_UNIT_ASSIGNED_CONTEXT ( ( #237, #219, #107 ) ) REPRESENTATION_CONTEXT ( 'NONE', 'WORKASPACE' ) );
#164 = APPROVAL ( #162, 'UNSPECIFIED' ) ;
#165 = COORDINATED_UNIVERSAL_TIME_OFFSET ( 5, 0, .BEHIND. ) ;
#166 = VECTOR ( 'NONE', #105, 1000.000000000000000 ) ;
#167 = EDGE_CURVE ( 'NONE', #44, #122, #188, .T. ) ;
#168 = DESIGN_CONTEXT ( 'detailed design', #183, 'design' ) ;
#169 = VECTOR ( 'NONE', #32, 1000.000000000000000 ) ;
#170 = UNCERTAINTY_MEASURE_WITH_UNIT (LENGTH_MEASURE( 1.000000000000000100E-005 ), #237, 'distance_accuracy_value', 'NONE');
#171 = APPROVAL_DATE_TIME ( #12, #30 ) ;
#172 = LINE ( 'NONE', #60, #29 ) ;
#173 = DIRECTION ( 'NONE',  ( 0.0000000000000000000, 1.000000000000000000, 0.0000000000000000000 ) ) ;
#174 = ORIENTED_EDGE ( 'NONE', *, *, #147, .F. ) ;
#175 = CARTESIAN_POINT ( 'NONE',  ( 25.00000000000000700, -25.00000000000000000, 1.649999999999999900 ) ) ;
#176 = DIRECTION ( 'NONE',  ( -1.000000000000000000, 0.0000000000000000000, 0.0000000000000000000 ) ) ;
#177 = CARTESIAN_POINT ( 'NONE',  ( 0.0000000000000000000, 0.0000000000000000000, 1.649999999999999900 ) ) ;
#178 = CALENDAR_DATE ( 2019, 28, 1 ) ;
#179 = VECTOR ( 'NONE', #198, 1000.000000000000000 ) ;
#180 = CARTESIAN_POINT ( 'NONE',  ( -24.99999999999999300, -25.00000000000000000, 1.649999999999999900 ) ) ;
#181 = DIRECTION ( 'NONE',  ( -1.000000000000000000, -0.0000000000000000000, -0.0000000000000000000 ) ) ;
#182 = DIRECTION ( 'NONE',  ( 1.000000000000000000, 0.0000000000000000000, 0.0000000000000000000 ) ) ;
#183 = APPLICATION_CONTEXT ( 'configuration controlled 3d designs of mechanical parts and assemblies' ) ;
#184 = EDGE_CURVE ( 'NONE', #122, #67, #137, .T. ) ;
#185 = VECTOR ( 'NONE', #88, 1000.000000000000000 ) ;
#186 = DATE_TIME_ROLE ( 'creation_date' ) ;
#187 = LOCAL_TIME ( 14, 15, 46.00000000000000000, #165 ) ;
#188 = LINE ( 'NONE', #200, #166 ) ;
#189 = PRODUCT ( 'Web Model 48543_48543', 'Web Model 48543_48543', '', ( #111 ) ) ;
#190 = EDGE_LOOP ( 'NONE', ( #8, #98, #113, #84 ) ) ;
#191 = VERTEX_POINT ( 'NONE', #71 ) ;
#192 = EDGE_CURVE ( 'NONE', #44, #191, #102, .T. ) ;
#193 = DIRECTION ( 'NONE',  ( 1.000000000000000000, 0.0000000000000000000, 0.0000000000000000000 ) ) ;
#194 = CC_DESIGN_PERSON_AND_ORGANIZATION_ASSIGNMENT ( #69, #223, ( #47 ) ) ;
#195 = DIRECTION ( 'NONE',  ( 0.0000000000000000000, -0.0000000000000000000, -1.000000000000000000 ) ) ;
#196 = LOCAL_TIME ( 14, 15, 46.00000000000000000, #118 ) ;
#197 = EDGE_LOOP ( 'NONE', ( #40, #41, #222, #97 ) ) ;
#198 = DIRECTION ( 'NONE',  ( 1.000000000000000000, 0.0000000000000000000, 0.0000000000000000000 ) ) ;
#199 = CC_DESIGN_PERSON_AND_ORGANIZATION_ASSIGNMENT ( #142, #42, ( #78 ) ) ;
#200 = CARTESIAN_POINT ( 'NONE',  ( 25.00000000000000700, 25.00000000000000000, 1.649999999999999900 ) ) ;
#201 = COORDINATED_UNIVERSAL_TIME_OFFSET ( 5, 0, .BEHIND. ) ;
#202 = FACE_OUTER_BOUND ( 'NONE', #214, .T. ) ;
#203 = APPLICATION_PROTOCOL_DEFINITION ( 'international standard', 'config_control_design', 1994, #75 ) ;
#204 = ORIENTED_EDGE ( 'NONE', *, *, #192, .T. ) ;
#205 = DIRECTION ( 'NONE',  ( -1.000000000000000000, 0.0000000000000000000, -0.0000000000000000000 ) ) ;
#206 = AXIS2_PLACEMENT_3D ( 'NONE', #177, #56, #220 ) ;
#207 = APPROVAL_STATUS ( 'not_yet_approved' ) ;
#208 = ORIENTED_EDGE ( 'NONE', *, *, #123, .T. ) ;
#209 = EDGE_CURVE ( 'NONE', #103, #63, #36, .T. ) ;
#210 = DATE_AND_TIME ( #158, #187 ) ;
#211 = LINE ( 'NONE', #156, #213 ) ;
#212 = PLANE ( 'NONE',  #61 ) ;
#213 = VECTOR ( 'NONE', #55, 1000.000000000000000 ) ;
#214 = EDGE_LOOP ( 'NONE', ( #230, #204, #208, #7 ) ) ;
#215 = CARTESIAN_POINT ( 'NONE',  ( -24.99999999999999300, -25.00000000000000000, 1.649999999999999900 ) ) ;
#216 = CARTESIAN_POINT ( 'NONE',  ( -24.99999999999999300, -25.00000000000000000, 1.649999999999999900 ) ) ;
#217 = CALENDAR_DATE ( 2019, 28, 1 ) ;
#218 = VECTOR ( 'NONE', #124, 1000.000000000000000 ) ;
#219 =( NAMED_UNIT ( * ) PLANE_ANGLE_UNIT ( ) SI_UNIT ( $, .RADIAN. ) );
#220 = DIRECTION ( 'NONE',  ( -1.000000000000000000, 0.0000000000000000000, -0.0000000000000000000 ) ) ;
#221 = EDGE_CURVE ( 'NONE', #70, #44, #90, .T. ) ;
#222 = ORIENTED_EDGE ( 'NONE', *, *, #19, .F. ) ;
#223 = PERSON_AND_ORGANIZATION_ROLE ( 'classification_officer' ) ;
#224 = CC_DESIGN_DATE_AND_TIME_ASSIGNMENT ( #73, #186, ( #78 ) ) ;
#225 = APPROVAL_DATE_TIME ( #58, #164 ) ;
#226 = PERSON_AND_ORGANIZATION ( #48, #229 ) ;
#227 = LINE ( 'NONE', #175, #22 ) ;
#228 = ORIENTED_EDGE ( 'NONE', *, *, #65, .T. ) ;
#229 = ORGANIZATION ( 'UNSPECIFIED', 'UNSPECIFIED', '' ) ;
#230 = ORIENTED_EDGE ( 'NONE', *, *, #221, .T. ) ;
#231 = CARTESIAN_POINT ( 'NONE',  ( 25.00000000000000700, -25.00000000000000000, -1.649999999999999900 ) ) ;
#232 = CC_DESIGN_APPROVAL ( #30, ( #13 ) ) ;
#233 = CARTESIAN_POINT ( 'NONE',  ( -24.99999999999999300, 25.00000000000000000, -1.649999999999999900 ) ) ;
#234 = LOCAL_TIME ( 14, 15, 46.00000000000000000, #108 ) ;
#235 = ORIENTED_EDGE ( 'NONE', *, *, #10, .F. ) ;
#236 = EDGE_CURVE ( 'NONE', #83, #103, #154, .T. ) ;
#237 =( LENGTH_UNIT ( ) NAMED_UNIT ( * ) SI_UNIT ( .MILLI., .METRE. ) );
ENDSEC;
END-ISO-10303-21;
