ISO-10303-21;
HEADER;
FILE_DESCRIPTION (( 'STEP AP203' ),
    '1' );
FILE_NAME ('Web Model 68734.STEP',
    '2017-02-01T13:31:37',
    ( '' ),
    ( '' ),
    'SwSTEP 2.0',
    'SolidWorks 2016',
    '' );
FILE_SCHEMA (( 'CONFIG_CONTROL_DESIGN' ));
ENDSEC;

DATA;
#1 = ORIENTED_EDGE ( 'NONE', *, *, #149, .T. ) ;
#2 = ADVANCED_FACE ( 'NONE', ( #63 ), #147, .T. ) ;
#3 = CIRCLE ( 'NONE', #121, 5.000000000000001800 ) ;
#4 = CC_DESIGN_PERSON_AND_ORGANIZATION_ASSIGNMENT ( #72, #41, ( #168 ) ) ;
#5 = ORIENTED_EDGE ( 'NONE', *, *, #6, .F. ) ;
#6 = EDGE_CURVE ( 'NONE', #175, #142, #70, .T. ) ;
#7 = CARTESIAN_POINT ( 'NONE',  ( 1.500000000000000000, 0.0000000000000000000, 0.0000000000000000000 ) ) ;
#8 = EDGE_LOOP ( 'NONE', ( #5, #79, #46, #140 ) ) ;
#9 = DIRECTION ( 'NONE',  ( 1.000000000000000000, 0.0000000000000000000, 0.0000000000000000000 ) ) ;
#10 = APPROVAL_STATUS ( 'not_yet_approved' ) ;
#11 = CC_DESIGN_PERSON_AND_ORGANIZATION_ASSIGNMENT ( #94, #20, ( #69 ) ) ;
#12 = CC_DESIGN_PERSON_AND_ORGANIZATION_ASSIGNMENT ( #171, #25, ( #168 ) ) ;
#13 =( GEOMETRIC_REPRESENTATION_CONTEXT ( 3 ) GLOBAL_UNCERTAINTY_ASSIGNED_CONTEXT ( ( #39 ) ) GLOBAL_UNIT_ASSIGNED_CONTEXT ( ( #23, #80, #114 ) ) REPRESENTATION_CONTEXT ( 'NONE', 'WORKASPACE' ) );
#14 = PERSON_AND_ORGANIZATION ( #155, #47 ) ;
#15 = PRODUCT_DEFINITION_SHAPE ( 'NONE', 'NONE',  #69 ) ;
#16 = CARTESIAN_POINT ( 'NONE',  ( 1.500000000000000000, 0.0000000000000000000, 0.0000000000000000000 ) ) ;
#17 = CARTESIAN_POINT ( 'NONE',  ( 1.500000000000000000, 0.0000000000000000000, 5.000000000000001800 ) ) ;
#18 = PRODUCT ( 'Web Model 68734', 'Web Model 68734', '', ( #93 ) ) ;
#19 = ORIENTED_EDGE ( 'NONE', *, *, #37, .F. ) ;
#20 = PERSON_AND_ORGANIZATION_ROLE ( 'creator' ) ;
#21 = APPROVAL_ROLE ( '' ) ;
#22 = COORDINATED_UNIVERSAL_TIME_OFFSET ( 5, 0, .BEHIND. ) ;
#23 =( LENGTH_UNIT ( ) NAMED_UNIT ( * ) SI_UNIT ( .MILLI., .METRE. ) );
#24 = FACE_OUTER_BOUND ( 'NONE', #102, .T. ) ;
#25 = PERSON_AND_ORGANIZATION_ROLE ( 'design_supplier' ) ;
#26 = CALENDAR_DATE ( 2017, 1, 2 ) ;
#27 = AXIS2_PLACEMENT_3D ( 'NONE', #49, #156, #148 ) ;
#28 = CYLINDRICAL_SURFACE ( 'NONE', #27, 5.000000000000001800 ) ;
#29 = PERSON_AND_ORGANIZATION ( #155, #47 ) ;
#30 = LINE ( 'NONE', #146, #167 ) ;
#31 = CC_DESIGN_PERSON_AND_ORGANIZATION_ASSIGNMENT ( #29, #53, ( #18 ) ) ;
#32 = LOCAL_TIME ( 8, 31, 37.00000000000000000, #81 ) ;
#33 = AXIS2_PLACEMENT_3D ( 'NONE', #157, #104, #169 ) ;
#34 = CC_DESIGN_APPROVAL ( #48, ( #168 ) ) ;
#35 = CARTESIAN_POINT ( 'NONE',  ( 0.0000000000000000000, 6.123233995736768300E-016, -5.000000000000001800 ) ) ;
#36 = CARTESIAN_POINT ( 'NONE',  ( 0.0000000000000000000, 0.0000000000000000000, 5.000000000000001800 ) ) ;
#37 = EDGE_CURVE ( 'NONE', #142, #175, #112, .T. ) ;
#38 = DIRECTION ( 'NONE',  ( 1.000000000000000000, 0.0000000000000000000, 0.0000000000000000000 ) ) ;
#39 = UNCERTAINTY_MEASURE_WITH_UNIT (LENGTH_MEASURE( 1.000000000000000100E-005 ), #23, 'distance_accuracy_value', 'NONE');
#40 = LOCAL_TIME ( 8, 31, 37.00000000000000000, #145 ) ;
#41 = PERSON_AND_ORGANIZATION_ROLE ( 'creator' ) ;
#42 = LOCAL_TIME ( 8, 31, 37.00000000000000000, #166 ) ;
#43 = AXIS2_PLACEMENT_3D ( 'NONE', #106, #131, #74 ) ;
#44 = FACE_OUTER_BOUND ( 'NONE', #92, .T. ) ;
#45 = COORDINATED_UNIVERSAL_TIME_OFFSET ( 5, 0, .BEHIND. ) ;
#46 = ORIENTED_EDGE ( 'NONE', *, *, #158, .T. ) ;
#47 = ORGANIZATION ( 'UNSPECIFIED', 'UNSPECIFIED', '' ) ;
#48 = APPROVAL ( #122, 'UNSPECIFIED' ) ;
#49 = CARTESIAN_POINT ( 'NONE',  ( 1.500000000000000000, 0.0000000000000000000, 0.0000000000000000000 ) ) ;
#50 = CALENDAR_DATE ( 2017, 1, 2 ) ;
#51 = DIRECTION ( 'NONE',  ( 0.0000000000000000000, 0.0000000000000000000, -1.000000000000000000 ) ) ;
#52 = APPLICATION_PROTOCOL_DEFINITION ( 'international standard', 'config_control_design', 1994, #113 ) ;
#53 = PERSON_AND_ORGANIZATION_ROLE ( 'design_owner' ) ;
#54 = APPROVAL_DATE_TIME ( #86, #71 ) ;
#55 = APPROVAL_PERSON_ORGANIZATION ( #100, #48, #95 ) ;
#56 = AXIS2_PLACEMENT_3D ( 'NONE', #7, #170, #64 ) ;
#57 = PERSON_AND_ORGANIZATION ( #155, #47 ) ;
#58 = ADVANCED_FACE ( 'NONE', ( #44 ), #135, .F. ) ;
#59 = SHAPE_DEFINITION_REPRESENTATION ( #15, #76 ) ;
#60 = CLOSED_SHELL ( 'NONE', ( #153, #174, #2, #58 ) ) ;
#61 = CALENDAR_DATE ( 2017, 1, 2 ) ;
#62 = APPROVAL ( #10, 'UNSPECIFIED' ) ;
#63 = FACE_OUTER_BOUND ( 'NONE', #84, .T. ) ;
#64 = DIRECTION ( 'NONE',  ( 0.0000000000000000000, 0.0000000000000000000, 1.000000000000000000 ) ) ;
#65 = CIRCLE ( 'NONE', #85, 5.000000000000001800 ) ;
#66 = DESIGN_CONTEXT ( 'detailed design', #111, 'design' ) ;
#67 = CC_DESIGN_DATE_AND_TIME_ASSIGNMENT ( #82, #150, ( #69 ) ) ;
#68 = CALENDAR_DATE ( 2017, 1, 2 ) ;
#69 = PRODUCT_DEFINITION ( 'UNKNOWN', '', #168, #66 ) ;
#70 = CIRCLE ( 'NONE', #33, 5.000000000000001800 ) ;
#71 = APPROVAL ( #138, 'UNSPECIFIED' ) ;
#72 = PERSON_AND_ORGANIZATION ( #155, #47 ) ;
#73 = VERTEX_POINT ( 'NONE', #36 ) ;
#74 = DIRECTION ( 'NONE',  ( 0.0000000000000000000, 0.0000000000000000000, -1.000000000000000000 ) ) ;
#75 = DIRECTION ( 'NONE',  ( 0.0000000000000000000, 0.0000000000000000000, -1.000000000000000000 ) ) ;
#76 = ADVANCED_BREP_SHAPE_REPRESENTATION ( 'Web Model 68734', ( #129, #105 ), #13 ) ;
#77 = CARTESIAN_POINT ( 'NONE',  ( 0.0000000000000000000, 0.0000000000000000000, 0.0000000000000000000 ) ) ;
#78 = DIRECTION ( 'NONE',  ( 0.0000000000000000000, 0.0000000000000000000, 1.000000000000000000 ) ) ;
#79 = ORIENTED_EDGE ( 'NONE', *, *, #165, .T. ) ;
#80 =( NAMED_UNIT ( * ) PLANE_ANGLE_UNIT ( ) SI_UNIT ( $, .RADIAN. ) );
#81 = COORDINATED_UNIVERSAL_TIME_OFFSET ( 5, 0, .BEHIND. ) ;
#82 = DATE_AND_TIME ( #50, #152 ) ;
#83 = APPROVAL_PERSON_ORGANIZATION ( #14, #71, #21 ) ;
#84 = EDGE_LOOP ( 'NONE', ( #96, #132 ) ) ;
#85 = AXIS2_PLACEMENT_3D ( 'NONE', #77, #108, #160 ) ;
#86 = DATE_AND_TIME ( #68, #128 ) ;
#87 = CC_DESIGN_APPROVAL ( #62, ( #69 ) ) ;
#88 = DIRECTION ( 'NONE',  ( 1.000000000000000000, 0.0000000000000000000, 0.0000000000000000000 ) ) ;
#89 = DIRECTION ( 'NONE',  ( -1.000000000000000000, -0.0000000000000000000, -0.0000000000000000000 ) ) ;
#90 = CARTESIAN_POINT ( 'NONE',  ( 1.500000000000000000, 6.123233995736768300E-016, -5.000000000000001800 ) ) ;
#91 = CARTESIAN_POINT ( 'NONE',  ( 1.500000000000000000, 6.123233995736768300E-016, -5.000000000000001800 ) ) ;
#92 = EDGE_LOOP ( 'NONE', ( #107, #151 ) ) ;
#93 = MECHANICAL_CONTEXT ( 'NONE', #113, 'mechanical' ) ;
#94 = PERSON_AND_ORGANIZATION ( #155, #47 ) ;
#95 = APPROVAL_ROLE ( '' ) ;
#96 = ORIENTED_EDGE ( 'NONE', *, *, #37, .T. ) ;
#97 = CC_DESIGN_APPROVAL ( #71, ( #123 ) ) ;
#98 = PERSON_AND_ORGANIZATION_ROLE ( 'classification_officer' ) ;
#99 = FACE_OUTER_BOUND ( 'NONE', #8, .T. ) ;
#100 = PERSON_AND_ORGANIZATION ( #155, #47 ) ;
#101 = VECTOR ( 'NONE', #134, 1000.000000000000000 ) ;
#102 = EDGE_LOOP ( 'NONE', ( #144, #19, #116, #1 ) ) ;
#103 = CARTESIAN_POINT ( 'NONE',  ( 0.0000000000000000000, 0.0000000000000000000, 0.0000000000000000000 ) ) ;
#104 = DIRECTION ( 'NONE',  ( 1.000000000000000000, 0.0000000000000000000, 0.0000000000000000000 ) ) ;
#105 = AXIS2_PLACEMENT_3D ( 'NONE', #172, #78, #9 ) ;
#106 = CARTESIAN_POINT ( 'NONE',  ( 1.500000000000000000, 0.0000000000000000000, 0.0000000000000000000 ) ) ;
#107 = ORIENTED_EDGE ( 'NONE', *, *, #149, .F. ) ;
#108 = DIRECTION ( 'NONE',  ( 1.000000000000000000, 0.0000000000000000000, 0.0000000000000000000 ) ) ;
#109 = APPLICATION_PROTOCOL_DEFINITION ( 'international standard', 'config_control_design', 1994, #111 ) ;
#110 = PERSON_AND_ORGANIZATION ( #155, #47 ) ;
#111 = APPLICATION_CONTEXT ( 'configuration controlled 3d designs of mechanical parts and assemblies' ) ;
#112 = CIRCLE ( 'NONE', #43, 5.000000000000001800 ) ;
#113 = APPLICATION_CONTEXT ( 'configuration controlled 3d designs of mechanical parts and assemblies' ) ;
#114 =( NAMED_UNIT ( * ) SI_UNIT ( $, .STERADIAN. ) SOLID_ANGLE_UNIT ( ) );
#115 = APPROVAL_DATE_TIME ( #161, #62 ) ;
#116 = ORIENTED_EDGE ( 'NONE', *, *, #143, .T. ) ;
#117 = CARTESIAN_POINT ( 'NONE',  ( 0.0000000000000000000, 0.0000000000000000000, 0.0000000000000000000 ) ) ;
#118 = CC_DESIGN_PERSON_AND_ORGANIZATION_ASSIGNMENT ( #57, #98, ( #123 ) ) ;
#119 = DIRECTION ( 'NONE',  ( 0.0000000000000000000, 0.0000000000000000000, -1.000000000000000000 ) ) ;
#120 = CC_DESIGN_SECURITY_CLASSIFICATION ( #123, ( #168 ) ) ;
#121 = AXIS2_PLACEMENT_3D ( 'NONE', #117, #133, #75 ) ;
#122 = APPROVAL_STATUS ( 'not_yet_approved' ) ;
#123 = SECURITY_CLASSIFICATION ( '', '', #136 ) ;
#124 = CC_DESIGN_DATE_AND_TIME_ASSIGNMENT ( #125, #159, ( #123 ) ) ;
#125 = DATE_AND_TIME ( #126, #40 ) ;
#126 = CALENDAR_DATE ( 2017, 1, 2 ) ;
#127 = VERTEX_POINT ( 'NONE', #35 ) ;
#128 = LOCAL_TIME ( 8, 31, 37.00000000000000000, #45 ) ;
#129 = MANIFOLD_SOLID_BREP ( 'Extrude1', #60 ) ;
#130 = APPROVAL_PERSON_ORGANIZATION ( #110, #62, #137 ) ;
#131 = DIRECTION ( 'NONE',  ( 1.000000000000000000, 0.0000000000000000000, 0.0000000000000000000 ) ) ;
#132 = ORIENTED_EDGE ( 'NONE', *, *, #6, .T. ) ;
#133 = DIRECTION ( 'NONE',  ( 1.000000000000000000, 0.0000000000000000000, 0.0000000000000000000 ) ) ;
#134 = DIRECTION ( 'NONE',  ( -1.000000000000000000, -0.0000000000000000000, -0.0000000000000000000 ) ) ;
#135 = PLANE ( 'NONE',  #163 ) ;
#136 = SECURITY_CLASSIFICATION_LEVEL ( 'unclassified' ) ;
#137 = APPROVAL_ROLE ( '' ) ;
#138 = APPROVAL_STATUS ( 'not_yet_approved' ) ;
#139 = LINE ( 'NONE', #90, #101 ) ;
#140 = ORIENTED_EDGE ( 'NONE', *, *, #143, .F. ) ;
#141 = DATE_AND_TIME ( #61, #32 ) ;
#142 = VERTEX_POINT ( 'NONE', #17 ) ;
#143 = EDGE_CURVE ( 'NONE', #142, #73, #30, .T. ) ;
#144 = ORIENTED_EDGE ( 'NONE', *, *, #165, .F. ) ;
#145 = COORDINATED_UNIVERSAL_TIME_OFFSET ( 5, 0, .BEHIND. ) ;
#146 = CARTESIAN_POINT ( 'NONE',  ( 1.500000000000000000, 0.0000000000000000000, 5.000000000000001800 ) ) ;
#147 = PLANE ( 'NONE',  #154 ) ;
#148 = DIRECTION ( 'NONE',  ( 0.0000000000000000000, 0.0000000000000000000, 1.000000000000000000 ) ) ;
#149 = EDGE_CURVE ( 'NONE', #73, #127, #3, .T. ) ;
#150 = DATE_TIME_ROLE ( 'creation_date' ) ;
#151 = ORIENTED_EDGE ( 'NONE', *, *, #158, .F. ) ;
#152 = LOCAL_TIME ( 8, 31, 37.00000000000000000, #22 ) ;
#153 = ADVANCED_FACE ( 'NONE', ( #99 ), #28, .T. ) ;
#154 = AXIS2_PLACEMENT_3D ( 'NONE', #16, #88, #119 ) ;
#155 = PERSON ( 'UNSPECIFIED', 'UNSPECIFIED', 'UNSPECIFIED', ('UNSPECIFIED'), ('UNSPECIFIED'), ('UNSPECIFIED') ) ;
#156 = DIRECTION ( 'NONE',  ( -1.000000000000000000, -0.0000000000000000000, -0.0000000000000000000 ) ) ;
#157 = CARTESIAN_POINT ( 'NONE',  ( 1.500000000000000000, 0.0000000000000000000, 0.0000000000000000000 ) ) ;
#158 = EDGE_CURVE ( 'NONE', #127, #73, #65, .T. ) ;
#159 = DATE_TIME_ROLE ( 'classification_date' ) ;
#160 = DIRECTION ( 'NONE',  ( 0.0000000000000000000, 0.0000000000000000000, -1.000000000000000000 ) ) ;
#161 = DATE_AND_TIME ( #26, #42 ) ;
#162 = APPROVAL_DATE_TIME ( #141, #48 ) ;
#163 = AXIS2_PLACEMENT_3D ( 'NONE', #103, #38, #51 ) ;
#164 = CYLINDRICAL_SURFACE ( 'NONE', #56, 5.000000000000001800 ) ;
#165 = EDGE_CURVE ( 'NONE', #175, #127, #139, .T. ) ;
#166 = COORDINATED_UNIVERSAL_TIME_OFFSET ( 5, 0, .BEHIND. ) ;
#167 = VECTOR ( 'NONE', #89, 1000.000000000000000 ) ;
#168 = PRODUCT_DEFINITION_FORMATION_WITH_SPECIFIED_SOURCE ( 'ANY', '', #18, .NOT_KNOWN. ) ;
#169 = DIRECTION ( 'NONE',  ( 0.0000000000000000000, 0.0000000000000000000, -1.000000000000000000 ) ) ;
#170 = DIRECTION ( 'NONE',  ( -1.000000000000000000, -0.0000000000000000000, -0.0000000000000000000 ) ) ;
#171 = PERSON_AND_ORGANIZATION ( #155, #47 ) ;
#172 = CARTESIAN_POINT ( 'NONE',  ( 0.0000000000000000000, 0.0000000000000000000, 0.0000000000000000000 ) ) ;
#173 = PRODUCT_RELATED_PRODUCT_CATEGORY ( 'detail', '', ( #18 ) ) ;
#174 = ADVANCED_FACE ( 'NONE', ( #24 ), #164, .T. ) ;
#175 = VERTEX_POINT ( 'NONE', #91 ) ;
ENDSEC;
END-ISO-10303-21;
