ISO-10303-21;
HEADER;
FILE_DESCRIPTION (( 'STEP AP203' ),
    '1' );
FILE_NAME ('Web Model 14961_18339.step',
    '2021-06-28T14:52:34',
    ( '' ),
    ( '' ),
    'SwSTEP 2.0',
    'SolidWorks 2018',
    '' );
FILE_SCHEMA (( 'CONFIG_CONTROL_DESIGN' ));
ENDSEC;

DATA;
#1 = PERSON_AND_ORGANIZATION ( #27, #84 ) ;
#2 = PRODUCT ( 'Web Model 14961_18339', 'Web Model 14961_18339', '', ( #102 ) ) ;
#3 = DIRECTION ( 'NONE',  ( 0.000000000000000000, 0.000000000000000000, 1.000000000000000000 ) ) ;
#4 = APPLICATION_CONTEXT ( 'configuration controlled 3d designs of mechanical parts and assemblies' ) ;
#5 = DIRECTION ( 'NONE',  ( 0.000000000000000000, 0.000000000000000000, -1.000000000000000000 ) ) ;
#6 = DIRECTION ( 'NONE',  ( 1.000000000000000000, 0.000000000000000000, 0.000000000000000000 ) ) ;
#7 = EDGE_LOOP ( 'NONE', ( #42, #12 ) ) ;
#8 = PERSON_AND_ORGANIZATION ( #27, #84 ) ;
#9 = APPROVAL_STATUS ( 'not_yet_approved' ) ;
#10 = CC_DESIGN_PERSON_AND_ORGANIZATION_ASSIGNMENT ( #56, #15, ( #2 ) ) ;
#11 = CALENDAR_DATE ( 2021, 28, 6 ) ;
#12 = ORIENTED_EDGE ( 'NONE', *, *, #88, .F. ) ;
#13 = CARTESIAN_POINT ( 'NONE',  ( 1.000000000000000000, 1.224646799147353256E-15, -10.00000000000000000 ) ) ;
#14 = DIRECTION ( 'NONE',  ( 0.000000000000000000, 0.000000000000000000, -1.000000000000000000 ) ) ;
#15 = PERSON_AND_ORGANIZATION_ROLE ( 'design_owner' ) ;
#16 = DIRECTION ( 'NONE',  ( -1.000000000000000000, -0.000000000000000000, -0.000000000000000000 ) ) ;
#17 = LOCAL_TIME ( 10, 52, 34.00000000000000000, #44 ) ;
#18 = AXIS2_PLACEMENT_3D ( 'NONE', #105, #16, #3 ) ;
#19 = ORIENTED_EDGE ( 'NONE', *, *, #88, .T. ) ;
#20 = CARTESIAN_POINT ( 'NONE',  ( -1.000000000000000000, 0.000000000000000000, 0.000000000000000000 ) ) ;
#21 = PRODUCT_DEFINITION_SHAPE ( 'NONE', 'NONE',  #39 ) ;
#22 = PERSON_AND_ORGANIZATION_ROLE ( 'classification_officer' ) ;
#23 = CC_DESIGN_DATE_AND_TIME_ASSIGNMENT ( #112, #52, ( #39 ) ) ;
#24 = DESIGN_CONTEXT ( 'detailed design', #33, 'design' ) ;
#25 = EDGE_LOOP ( 'NONE', ( #49, #104 ) ) ;
#26 = CC_DESIGN_PERSON_AND_ORGANIZATION_ASSIGNMENT ( #37, #36, ( #149 ) ) ;
#27 = PERSON ( 'UNSPECIFIED', 'UNSPECIFIED', 'UNSPECIFIED', ('UNSPECIFIED'), ('UNSPECIFIED'), ('UNSPECIFIED') ) ;
#28 = CALENDAR_DATE ( 2021, 28, 6 ) ;
#29 = ORIENTED_EDGE ( 'NONE', *, *, #116, .T. ) ;
#30 = APPLICATION_PROTOCOL_DEFINITION ( 'international standard', 'config_control_design', 1994, #4 ) ;
#31 = CALENDAR_DATE ( 2021, 28, 6 ) ;
#32 = AXIS2_PLACEMENT_3D ( 'NONE', #118, #94, #91 ) ;
#33 = APPLICATION_CONTEXT ( 'configuration controlled 3d designs of mechanical parts and assemblies' ) ;
#34 = DIRECTION ( 'NONE',  ( 1.000000000000000000, 0.000000000000000000, 0.000000000000000000 ) ) ;
#35 = AXIS2_PLACEMENT_3D ( 'NONE', #158, #45, #117 ) ;
#36 = PERSON_AND_ORGANIZATION_ROLE ( 'design_supplier' ) ;
#37 = PERSON_AND_ORGANIZATION ( #27, #84 ) ;
#38 = VECTOR ( 'NONE', #108, 1000.000000000000000 ) ;
#39 = PRODUCT_DEFINITION ( 'UNKNOWN', '', #149, #24 ) ;
#40 = ORIENTED_EDGE ( 'NONE', *, *, #129, .F. ) ;
#41 = CC_DESIGN_PERSON_AND_ORGANIZATION_ASSIGNMENT ( #144, #96, ( #39 ) ) ;
#42 = ORIENTED_EDGE ( 'NONE', *, *, #116, .F. ) ;
#43 = APPROVAL ( #46, 'UNSPECIFIED' ) ;
#44 = COORDINATED_UNIVERSAL_TIME_OFFSET ( 5, 0, .BEHIND. ) ;
#45 = DIRECTION ( 'NONE',  ( 1.000000000000000000, 0.000000000000000000, 0.000000000000000000 ) ) ;
#46 = APPROVAL_STATUS ( 'not_yet_approved' ) ;
#47 = CALENDAR_DATE ( 2021, 28, 6 ) ;
#48 = CARTESIAN_POINT ( 'NONE',  ( 1.000000000000000000, 1.224646799147353256E-15, -10.00000000000000000 ) ) ;
#49 = ORIENTED_EDGE ( 'NONE', *, *, #153, .T. ) ;
#50 = DIRECTION ( 'NONE',  ( 1.000000000000000000, 0.000000000000000000, 0.000000000000000000 ) ) ;
#51 = CC_DESIGN_PERSON_AND_ORGANIZATION_ASSIGNMENT ( #124, #125, ( #149 ) ) ;
#52 = DATE_TIME_ROLE ( 'creation_date' ) ;
#53 = COORDINATED_UNIVERSAL_TIME_OFFSET ( 5, 0, .BEHIND. ) ;
#54 = APPROVAL_ROLE ( '' ) ;
#55 = APPROVAL ( #109, 'UNSPECIFIED' ) ;
#56 = PERSON_AND_ORGANIZATION ( #27, #84 ) ;
#57 = ORIENTED_EDGE ( 'NONE', *, *, #72, .T. ) ;
#58 = CC_DESIGN_APPROVAL ( #43, ( #39 ) ) ;
#59 = PERSON_AND_ORGANIZATION ( #27, #84 ) ;
#60 = CC_DESIGN_PERSON_AND_ORGANIZATION_ASSIGNMENT ( #59, #22, ( #68 ) ) ;
#61 = FACE_OUTER_BOUND ( 'NONE', #25, .T. ) ;
#62 = DIRECTION ( 'NONE',  ( 0.000000000000000000, 0.000000000000000000, 1.000000000000000000 ) ) ;
#63 = APPROVAL_ROLE ( '' ) ;
#64 = SHAPE_DEFINITION_REPRESENTATION ( #21, #169 ) ;
#65 = CIRCLE ( 'NONE', #141, 10.00000000000000000 ) ;
#66 = CARTESIAN_POINT ( 'NONE',  ( 1.000000000000000000, 0.000000000000000000, 0.000000000000000000 ) ) ;
#67 = DIRECTION ( 'NONE',  ( 0.000000000000000000, 0.000000000000000000, -1.000000000000000000 ) ) ;
#68 = SECURITY_CLASSIFICATION ( '', '', #95 ) ;
#69 = LOCAL_TIME ( 10, 52, 34.00000000000000000, #103 ) ;
#70 = MANIFOLD_SOLID_BREP ( 'Boss-Extrude1', #161 ) ;
#71 = CC_DESIGN_APPROVAL ( #55, ( #68 ) ) ;
#72 = EDGE_CURVE ( 'NONE', #89, #143, #142, .T. ) ;
#73 = LOCAL_TIME ( 10, 52, 34.00000000000000000, #53 ) ;
#74 = EDGE_LOOP ( 'NONE', ( #40, #82, #19, #155 ) ) ;
#75 = EDGE_CURVE ( 'NONE', #85, #113, #79, .T. ) ;
#76 = CARTESIAN_POINT ( 'NONE',  ( 1.000000000000000000, 0.000000000000000000, 10.00000000000000000 ) ) ;
#77 = DATE_AND_TIME ( #47, #101 ) ;
#78 = CARTESIAN_POINT ( 'NONE',  ( 0.000000000000000000, 0.000000000000000000, 0.000000000000000000 ) ) ;
#79 = LINE ( 'NONE', #13, #38 ) ;
#80 = CARTESIAN_POINT ( 'NONE',  ( -1.000000000000000000, 0.000000000000000000, 0.000000000000000000 ) ) ;
#81 =( NAMED_UNIT ( * ) SI_UNIT ( $, .STERADIAN. ) SOLID_ANGLE_UNIT ( ) );
#82 = ORIENTED_EDGE ( 'NONE', *, *, #75, .T. ) ;
#83 = CC_DESIGN_DATE_AND_TIME_ASSIGNMENT ( #147, #122, ( #68 ) ) ;
#84 = ORGANIZATION ( 'UNSPECIFIED', 'UNSPECIFIED', '' ) ;
#85 = VERTEX_POINT ( 'NONE', #48 ) ;
#86 = AXIS2_PLACEMENT_3D ( 'NONE', #20, #50, #67 ) ;
#87 = FACE_OUTER_BOUND ( 'NONE', #114, .T. ) ;
#88 = EDGE_CURVE ( 'NONE', #113, #143, #65, .T. ) ;
#89 = VERTEX_POINT ( 'NONE', #76 ) ;
#90 = CC_DESIGN_SECURITY_CLASSIFICATION ( #68, ( #149 ) ) ;
#91 = DIRECTION ( 'NONE',  ( 0.000000000000000000, 0.000000000000000000, -1.000000000000000000 ) ) ;
#92 = COORDINATED_UNIVERSAL_TIME_OFFSET ( 5, 0, .BEHIND. ) ;
#93 = ORIENTED_EDGE ( 'NONE', *, *, #153, .F. ) ;
#94 = DIRECTION ( 'NONE',  ( 1.000000000000000000, 0.000000000000000000, 0.000000000000000000 ) ) ;
#95 = SECURITY_CLASSIFICATION_LEVEL ( 'unclassified' ) ;
#96 = PERSON_AND_ORGANIZATION_ROLE ( 'creator' ) ;
#97 = APPROVAL_PERSON_ORGANIZATION ( #157, #43, #63 ) ;
#98 = CIRCLE ( 'NONE', #86, 10.00000000000000000 ) ;
#99 = APPROVAL_DATE_TIME ( #173, #55 ) ;
#100 = VECTOR ( 'NONE', #136, 1000.000000000000000 ) ;
#101 = LOCAL_TIME ( 10, 52, 34.00000000000000000, #92 ) ;
#102 = MECHANICAL_CONTEXT ( 'NONE', #4, 'mechanical' ) ;
#103 = COORDINATED_UNIVERSAL_TIME_OFFSET ( 5, 0, .BEHIND. ) ;
#104 = ORIENTED_EDGE ( 'NONE', *, *, #129, .T. ) ;
#105 = CARTESIAN_POINT ( 'NONE',  ( 1.000000000000000000, 0.000000000000000000, 0.000000000000000000 ) ) ;
#106 = ADVANCED_FACE ( 'NONE', ( #61 ), #135, .T. ) ;
#107 = DIRECTION ( 'NONE',  ( 1.000000000000000000, 0.000000000000000000, 0.000000000000000000 ) ) ;
#108 = DIRECTION ( 'NONE',  ( -1.000000000000000000, -0.000000000000000000, -0.000000000000000000 ) ) ;
#109 = APPROVAL_STATUS ( 'not_yet_approved' ) ;
#110 = DATE_AND_TIME ( #11, #73 ) ;
#111 = APPROVAL ( #9, 'UNSPECIFIED' ) ;
#112 = DATE_AND_TIME ( #31, #152 ) ;
#113 = VERTEX_POINT ( 'NONE', #151 ) ;
#114 = EDGE_LOOP ( 'NONE', ( #148, #93, #57, #29 ) ) ;
#115 = CALENDAR_DATE ( 2021, 28, 6 ) ;
#116 = EDGE_CURVE ( 'NONE', #143, #113, #98, .T. ) ;
#117 = DIRECTION ( 'NONE',  ( 0.000000000000000000, 0.000000000000000000, -1.000000000000000000 ) ) ;
#118 = CARTESIAN_POINT ( 'NONE',  ( 1.000000000000000000, 0.000000000000000000, 0.000000000000000000 ) ) ;
#119 = UNCERTAINTY_MEASURE_WITH_UNIT (LENGTH_MEASURE( 1.000000000000000082E-05 ), #174, 'distance_accuracy_value', 'NONE');
#120 = CARTESIAN_POINT ( 'NONE',  ( -1.000000000000000000, 0.000000000000000000, 10.00000000000000000 ) ) ;
#121 = CARTESIAN_POINT ( 'NONE',  ( -1.000000000000000000, 0.000000000000000000, 0.000000000000000000 ) ) ;
#122 = DATE_TIME_ROLE ( 'classification_date' ) ;
#123 = ADVANCED_FACE ( 'NONE', ( #127 ), #131, .T. ) ;
#124 = PERSON_AND_ORGANIZATION ( #27, #84 ) ;
#125 = PERSON_AND_ORGANIZATION_ROLE ( 'creator' ) ;
#126 = CYLINDRICAL_SURFACE ( 'NONE', #18, 10.00000000000000000 ) ;
#127 = FACE_OUTER_BOUND ( 'NONE', #74, .T. ) ;
#128 = AXIS2_PLACEMENT_3D ( 'NONE', #121, #107, #159 ) ;
#129 = EDGE_CURVE ( 'NONE', #85, #89, #139, .T. ) ;
#130 = CIRCLE ( 'NONE', #32, 10.00000000000000000 ) ;
#131 = CYLINDRICAL_SURFACE ( 'NONE', #168, 10.00000000000000000 ) ;
#132 = CARTESIAN_POINT ( 'NONE',  ( 1.000000000000000000, 0.000000000000000000, 10.00000000000000000 ) ) ;
#133 = APPLICATION_PROTOCOL_DEFINITION ( 'international standard', 'config_control_design', 1994, #33 ) ;
#134 = ADVANCED_FACE ( 'NONE', ( #171 ), #145, .F. ) ;
#135 = PLANE ( 'NONE',  #146 ) ;
#136 = DIRECTION ( 'NONE',  ( -1.000000000000000000, -0.000000000000000000, -0.000000000000000000 ) ) ;
#137 = ADVANCED_FACE ( 'NONE', ( #87 ), #126, .T. ) ;
#138 = AXIS2_PLACEMENT_3D ( 'NONE', #78, #175, #6 ) ;
#139 = CIRCLE ( 'NONE', #35, 10.00000000000000000 ) ;
#140 = APPROVAL_ROLE ( '' ) ;
#141 = AXIS2_PLACEMENT_3D ( 'NONE', #80, #34, #14 ) ;
#142 = LINE ( 'NONE', #132, #100 ) ;
#143 = VERTEX_POINT ( 'NONE', #120 ) ;
#144 = PERSON_AND_ORGANIZATION ( #27, #84 ) ;
#145 = PLANE ( 'NONE',  #128 ) ;
#146 = AXIS2_PLACEMENT_3D ( 'NONE', #160, #150, #5 ) ;
#147 = DATE_AND_TIME ( #115, #17 ) ;
#148 = ORIENTED_EDGE ( 'NONE', *, *, #75, .F. ) ;
#149 = PRODUCT_DEFINITION_FORMATION_WITH_SPECIFIED_SOURCE ( 'ANY', '', #2, .NOT_KNOWN. ) ;
#150 = DIRECTION ( 'NONE',  ( 1.000000000000000000, 0.000000000000000000, 0.000000000000000000 ) ) ;
#151 = CARTESIAN_POINT ( 'NONE',  ( -1.000000000000000000, 1.224646799147353256E-15, -10.00000000000000000 ) ) ;
#152 = LOCAL_TIME ( 10, 52, 34.00000000000000000, #163 ) ;
#153 = EDGE_CURVE ( 'NONE', #89, #85, #130, .T. ) ;
#154 = APPROVAL_PERSON_ORGANIZATION ( #8, #111, #54 ) ;
#155 = ORIENTED_EDGE ( 'NONE', *, *, #72, .F. ) ;
#156 = CC_DESIGN_APPROVAL ( #111, ( #149 ) ) ;
#157 = PERSON_AND_ORGANIZATION ( #27, #84 ) ;
#158 = CARTESIAN_POINT ( 'NONE',  ( 1.000000000000000000, 0.000000000000000000, 0.000000000000000000 ) ) ;
#159 = DIRECTION ( 'NONE',  ( 0.000000000000000000, 0.000000000000000000, -1.000000000000000000 ) ) ;
#160 = CARTESIAN_POINT ( 'NONE',  ( 1.000000000000000000, 0.000000000000000000, 0.000000000000000000 ) ) ;
#161 = CLOSED_SHELL ( 'NONE', ( #123, #137, #106, #134 ) ) ;
#162 =( NAMED_UNIT ( * ) PLANE_ANGLE_UNIT ( ) SI_UNIT ( $, .RADIAN. ) );
#163 = COORDINATED_UNIVERSAL_TIME_OFFSET ( 5, 0, .BEHIND. ) ;
#164 = APPROVAL_PERSON_ORGANIZATION ( #1, #55, #140 ) ;
#165 =( GEOMETRIC_REPRESENTATION_CONTEXT ( 3 ) GLOBAL_UNCERTAINTY_ASSIGNED_CONTEXT ( ( #119 ) ) GLOBAL_UNIT_ASSIGNED_CONTEXT ( ( #174, #162, #81 ) ) REPRESENTATION_CONTEXT ( 'NONE', 'WORKASPACE' ) );
#166 = PRODUCT_RELATED_PRODUCT_CATEGORY ( 'detail', '', ( #2 ) ) ;
#167 = APPROVAL_DATE_TIME ( #77, #43 ) ;
#168 = AXIS2_PLACEMENT_3D ( 'NONE', #66, #172, #62 ) ;
#169 = ADVANCED_BREP_SHAPE_REPRESENTATION ( 'Web Model 14961_18339', ( #70, #138 ), #165 ) ;
#170 = APPROVAL_DATE_TIME ( #110, #111 ) ;
#171 = FACE_OUTER_BOUND ( 'NONE', #7, .T. ) ;
#172 = DIRECTION ( 'NONE',  ( -1.000000000000000000, -0.000000000000000000, -0.000000000000000000 ) ) ;
#173 = DATE_AND_TIME ( #28, #69 ) ;
#174 =( LENGTH_UNIT ( ) NAMED_UNIT ( * ) SI_UNIT ( .MILLI., .METRE. ) );
#175 = DIRECTION ( 'NONE',  ( 0.000000000000000000, 0.000000000000000000, 1.000000000000000000 ) ) ;
ENDSEC;
END-ISO-10303-21;
