ISO-10303-21;
HEADER;
FILE_DESCRIPTION (( 'STEP AP203' ),
    '1' );
FILE_NAME ('Web Model 46068_46072.step',
    '2017-07-13T13:29:25',
    ( '' ),
    ( '' ),
    'SwSTEP 2.0',
    'SolidWorks 2016',
    '' );
FILE_SCHEMA (( 'CONFIG_CONTROL_DESIGN' ));
ENDSEC;

DATA;
#1 = EDGE_CURVE ( 'NONE', #110, #42, #99, .T. ) ;
#2 = VECTOR ( 'NONE', #82, 1000.000000000000000 ) ;
#3 = MANIFOLD_SOLID_BREP ( 'Boss-Extrude1', #95 ) ;
#4 = ORIENTED_EDGE ( 'NONE', *, *, #195, .T. ) ;
#5 = EDGE_CURVE ( 'NONE', #104, #8, #103, .T. ) ;
#6 = APPLICATION_CONTEXT ( 'configuration controlled 3d designs of mechanical parts and assemblies' ) ;
#7 = EDGE_CURVE ( 'NONE', #34, #66, #25, .T. ) ;
#8 = VERTEX_POINT ( 'NONE', #165 ) ;
#9 = DIRECTION ( 'NONE',  ( 0.0000000000000000000, 0.0000000000000000000, 1.000000000000000000 ) ) ;
#10 = PRODUCT ( 'Web Model 46068_46072', 'Web Model 46068_46072', '', ( #176 ) ) ;
#11 = APPROVAL_ROLE ( '' ) ;
#12 = APPROVAL_DATE_TIME ( #196, #71 ) ;
#13 = VECTOR ( 'NONE', #212, 1000.000000000000000 ) ;
#14 = ORIENTED_EDGE ( 'NONE', *, *, #139, .T. ) ;
#15 = DIRECTION ( 'NONE',  ( -1.000000000000000000, -0.0000000000000000000, -0.0000000000000000000 ) ) ;
#16 = LINE ( 'NONE', #116, #162 ) ;
#17 = ORIENTED_EDGE ( 'NONE', *, *, #7, .T. ) ;
#18 = AXIS2_PLACEMENT_3D ( 'NONE', #19, #53, #184 ) ;
#19 = CARTESIAN_POINT ( 'NONE',  ( -12.49999999999999800, -12.50000000000000000, 1.500000000000000000 ) ) ;
#20 = LOCAL_TIME ( 9, 29, 25.00000000000000000, #154 ) ;
#21 = VECTOR ( 'NONE', #15, 1000.000000000000000 ) ;
#22 = ORIENTED_EDGE ( 'NONE', *, *, #76, .F. ) ;
#23 = CARTESIAN_POINT ( 'NONE',  ( 12.50000000000000000, -12.50000000000000000, 1.500000000000000000 ) ) ;
#24 = CARTESIAN_POINT ( 'NONE',  ( -12.49999999999999800, -12.50000000000000000, -1.500000000000000000 ) ) ;
#25 = LINE ( 'NONE', #85, #65 ) ;
#26 = APPLICATION_PROTOCOL_DEFINITION ( 'international standard', 'config_control_design', 1994, #228 ) ;
#27 = PERSON_AND_ORGANIZATION ( #70, #39 ) ;
#28 = VECTOR ( 'NONE', #137, 1000.000000000000000 ) ;
#29 = APPROVAL_STATUS ( 'not_yet_approved' ) ;
#30 = DIRECTION ( 'NONE',  ( -1.000000000000000000, 0.0000000000000000000, 0.0000000000000000000 ) ) ;
#31 = ORIENTED_EDGE ( 'NONE', *, *, #223, .T. ) ;
#32 = CARTESIAN_POINT ( 'NONE',  ( 12.50000000000000000, -12.50000000000000000, 1.500000000000000000 ) ) ;
#33 = PERSON_AND_ORGANIZATION ( #70, #39 ) ;
#34 = VERTEX_POINT ( 'NONE', #204 ) ;
#35 = CC_DESIGN_PERSON_AND_ORGANIZATION_ASSIGNMENT ( #33, #98, ( #166 ) ) ;
#36 = PLANE ( 'NONE',  #68 ) ;
#37 = LINE ( 'NONE', #24, #28 ) ;
#38 = EDGE_LOOP ( 'NONE', ( #84, #22, #129, #219 ) ) ;
#39 = ORGANIZATION ( 'UNSPECIFIED', 'UNSPECIFIED', '' ) ;
#40 = EDGE_LOOP ( 'NONE', ( #151, #147, #193, #17 ) ) ;
#41 = LINE ( 'NONE', #182, #215 ) ;
#42 = VERTEX_POINT ( 'NONE', #51 ) ;
#43 = DIRECTION ( 'NONE',  ( -1.000000000000000000, 0.0000000000000000000, -0.0000000000000000000 ) ) ;
#44 = EDGE_CURVE ( 'NONE', #135, #34, #113, .T. ) ;
#45 = APPROVAL_ROLE ( '' ) ;
#46 = APPROVAL_DATE_TIME ( #48, #102 ) ;
#47 = CC_DESIGN_PERSON_AND_ORGANIZATION_ASSIGNMENT ( #27, #178, ( #189 ) ) ;
#48 = DATE_AND_TIME ( #131, #142 ) ;
#49 = FACE_OUTER_BOUND ( 'NONE', #114, .T. ) ;
#50 = ORIENTED_EDGE ( 'NONE', *, *, #233, .T. ) ;
#51 = CARTESIAN_POINT ( 'NONE',  ( -12.49999999999999800, 12.49999999999999800, -1.500000000000000000 ) ) ;
#52 = PLANE ( 'NONE',  #18 ) ;
#53 = DIRECTION ( 'NONE',  ( 1.000000000000000000, 0.0000000000000000000, 0.0000000000000000000 ) ) ;
#54 = CARTESIAN_POINT ( 'NONE',  ( -12.49999999999999800, -12.50000000000000000, -1.500000000000000000 ) ) ;
#55 = ADVANCED_FACE ( 'NONE', ( #155 ), #52, .F. ) ;
#56 = PERSON_AND_ORGANIZATION ( #70, #39 ) ;
#57 = LINE ( 'NONE', #229, #62 ) ;
#58 = VERTEX_POINT ( 'NONE', #101 ) ;
#59 =( GEOMETRIC_REPRESENTATION_CONTEXT ( 3 ) GLOBAL_UNCERTAINTY_ASSIGNED_CONTEXT ( ( #153 ) ) GLOBAL_UNIT_ASSIGNED_CONTEXT ( ( #67, #225, #81 ) ) REPRESENTATION_CONTEXT ( 'NONE', 'WORKASPACE' ) );
#60 = FACE_OUTER_BOUND ( 'NONE', #38, .T. ) ;
#61 = ORIENTED_EDGE ( 'NONE', *, *, #44, .F. ) ;
#62 = VECTOR ( 'NONE', #64, 1000.000000000000000 ) ;
#63 = PLANE ( 'NONE',  #214 ) ;
#64 = DIRECTION ( 'NONE',  ( -1.000000000000000000, -0.0000000000000000000, -0.0000000000000000000 ) ) ;
#65 = VECTOR ( 'NONE', #73, 1000.000000000000000 ) ;
#66 = VERTEX_POINT ( 'NONE', #118 ) ;
#67 =( LENGTH_UNIT ( ) NAMED_UNIT ( * ) SI_UNIT ( .MILLI., .METRE. ) );
#68 = AXIS2_PLACEMENT_3D ( 'NONE', #106, #134, #194 ) ;
#69 = LOCAL_TIME ( 9, 29, 25.00000000000000000, #94 ) ;
#70 = PERSON ( 'UNSPECIFIED', 'UNSPECIFIED', 'UNSPECIFIED', ('UNSPECIFIED'), ('UNSPECIFIED'), ('UNSPECIFIED') ) ;
#71 = APPROVAL ( #136, 'UNSPECIFIED' ) ;
#72 = ORIENTED_EDGE ( 'NONE', *, *, #5, .T. ) ;
#73 = DIRECTION ( 'NONE',  ( -0.0000000000000000000, -0.0000000000000000000, -1.000000000000000000 ) ) ;
#74 = ADVANCED_FACE ( 'NONE', ( #128 ), #121, .F. ) ;
#75 = DIRECTION ( 'NONE',  ( 1.000000000000000000, 0.0000000000000000000, 0.0000000000000000000 ) ) ;
#76 = EDGE_CURVE ( 'NONE', #66, #8, #92, .T. ) ;
#77 = CARTESIAN_POINT ( 'NONE',  ( -12.49999999999999800, 12.49999999999999800, 1.500000000000000000 ) ) ;
#78 = CARTESIAN_POINT ( 'NONE',  ( 0.0000000000000000000, 0.0000000000000000000, 0.0000000000000000000 ) ) ;
#79 = PRODUCT_DEFINITION_SHAPE ( 'NONE', 'NONE',  #89 ) ;
#80 = CALENDAR_DATE ( 2017, 13, 7 ) ;
#81 =( NAMED_UNIT ( * ) SI_UNIT ( $, .STERADIAN. ) SOLID_ANGLE_UNIT ( ) );
#82 = DIRECTION ( 'NONE',  ( -0.0000000000000000000, -0.0000000000000000000, -1.000000000000000000 ) ) ;
#83 = DATE_TIME_ROLE ( 'classification_date' ) ;
#84 = ORIENTED_EDGE ( 'NONE', *, *, #163, .F. ) ;
#85 = CARTESIAN_POINT ( 'NONE',  ( -12.49999999999999800, -12.50000000000000000, 1.500000000000000000 ) ) ;
#86 = CC_DESIGN_PERSON_AND_ORGANIZATION_ASSIGNMENT ( #167, #213, ( #10 ) ) ;
#87 = DATE_AND_TIME ( #91, #199 ) ;
#88 = AXIS2_PLACEMENT_3D ( 'NONE', #78, #9, #159 ) ;
#89 = PRODUCT_DEFINITION ( 'UNKNOWN', '', #166, #109 ) ;
#90 = CARTESIAN_POINT ( 'NONE',  ( 12.50000000000000000, 12.49999999999999800, 1.500000000000000000 ) ) ;
#91 = CALENDAR_DATE ( 2017, 13, 7 ) ;
#92 = LINE ( 'NONE', #54, #143 ) ;
#93 = DIRECTION ( 'NONE',  ( 0.0000000000000000000, -0.0000000000000000000, 1.000000000000000000 ) ) ;
#94 = COORDINATED_UNIVERSAL_TIME_OFFSET ( 5, 0, .BEHIND. ) ;
#95 = CLOSED_SHELL ( 'NONE', ( #74, #152, #55, #205, #188, #186 ) ) ;
#96 = AXIS2_PLACEMENT_3D ( 'NONE', #160, #192, #177 ) ;
#97 = APPROVAL_PERSON_ORGANIZATION ( #107, #171, #144 ) ;
#98 = PERSON_AND_ORGANIZATION_ROLE ( 'creator' ) ;
#99 = LINE ( 'NONE', #180, #21 ) ;
#100 = SECURITY_CLASSIFICATION_LEVEL ( 'unclassified' ) ;
#101 = CARTESIAN_POINT ( 'NONE',  ( 12.50000000000000000, 12.49999999999999800, 1.500000000000000000 ) ) ;
#102 = APPROVAL ( #29, 'UNSPECIFIED' ) ;
#103 = LINE ( 'NONE', #32, #170 ) ;
#104 = VERTEX_POINT ( 'NONE', #120 ) ;
#105 = CC_DESIGN_APPROVAL ( #171, ( #189 ) ) ;
#106 = CARTESIAN_POINT ( 'NONE',  ( -12.49999999999999800, 12.49999999999999800, 1.500000000000000000 ) ) ;
#107 = PERSON_AND_ORGANIZATION ( #70, #39 ) ;
#108 = FACE_OUTER_BOUND ( 'NONE', #40, .T. ) ;
#109 = DESIGN_CONTEXT ( 'detailed design', #6, 'design' ) ;
#110 = VERTEX_POINT ( 'NONE', #221 ) ;
#111 = CC_DESIGN_PERSON_AND_ORGANIZATION_ASSIGNMENT ( #146, #117, ( #89 ) ) ;
#112 = DIRECTION ( 'NONE',  ( 0.0000000000000000000, 1.000000000000000000, 0.0000000000000000000 ) ) ;
#113 = LINE ( 'NONE', #141, #125 ) ;
#114 = EDGE_LOOP ( 'NONE', ( #226, #200, #175, #119 ) ) ;
#115 = AXIS2_PLACEMENT_3D ( 'NONE', #124, #30, #145 ) ;
#116 = CARTESIAN_POINT ( 'NONE',  ( 12.50000000000000000, -12.50000000000000000, -1.500000000000000000 ) ) ;
#117 = PERSON_AND_ORGANIZATION_ROLE ( 'creator' ) ;
#118 = CARTESIAN_POINT ( 'NONE',  ( -12.49999999999999800, -12.50000000000000000, -1.500000000000000000 ) ) ;
#119 = ORIENTED_EDGE ( 'NONE', *, *, #220, .T. ) ;
#120 = CARTESIAN_POINT ( 'NONE',  ( 12.50000000000000000, -12.50000000000000000, 1.500000000000000000 ) ) ;
#121 = PLANE ( 'NONE',  #115 ) ;
#122 = CC_DESIGN_DATE_AND_TIME_ASSIGNMENT ( #191, #140, ( #89 ) ) ;
#123 = APPROVAL_PERSON_ORGANIZATION ( #236, #102, #45 ) ;
#124 = CARTESIAN_POINT ( 'NONE',  ( 12.50000000000000000, -12.50000000000000000, 1.500000000000000000 ) ) ;
#125 = VECTOR ( 'NONE', #198, 1000.000000000000000 ) ;
#126 = DIRECTION ( 'NONE',  ( 1.000000000000000000, 0.0000000000000000000, 0.0000000000000000000 ) ) ;
#127 = CALENDAR_DATE ( 2017, 13, 7 ) ;
#128 = FACE_OUTER_BOUND ( 'NONE', #197, .T. ) ;
#129 = ORIENTED_EDGE ( 'NONE', *, *, #179, .F. ) ;
#130 = AXIS2_PLACEMENT_3D ( 'NONE', #172, #138, #43 ) ;
#131 = CALENDAR_DATE ( 2017, 13, 7 ) ;
#132 = ORIENTED_EDGE ( 'NONE', *, *, #195, .F. ) ;
#133 = PLANE ( 'NONE',  #130 ) ;
#134 = DIRECTION ( 'NONE',  ( 0.0000000000000000000, -1.000000000000000000, 0.0000000000000000000 ) ) ;
#135 = VERTEX_POINT ( 'NONE', #150 ) ;
#136 = APPROVAL_STATUS ( 'not_yet_approved' ) ;
#137 = DIRECTION ( 'NONE',  ( -0.0000000000000000000, -1.000000000000000000, -0.0000000000000000000 ) ) ;
#138 = DIRECTION ( 'NONE',  ( 0.0000000000000000000, 0.0000000000000000000, -1.000000000000000000 ) ) ;
#139 = EDGE_CURVE ( 'NONE', #34, #104, #41, .T. ) ;
#140 = DATE_TIME_ROLE ( 'creation_date' ) ;
#141 = CARTESIAN_POINT ( 'NONE',  ( -12.49999999999999800, -12.50000000000000000, 1.500000000000000000 ) ) ;
#142 = LOCAL_TIME ( 9, 29, 25.00000000000000000, #183 ) ;
#143 = VECTOR ( 'NONE', #75, 1000.000000000000000 ) ;
#144 = APPROVAL_ROLE ( '' ) ;
#145 = DIRECTION ( 'NONE',  ( 0.0000000000000000000, 0.0000000000000000000, 1.000000000000000000 ) ) ;
#146 = PERSON_AND_ORGANIZATION ( #70, #39 ) ;
#147 = ORIENTED_EDGE ( 'NONE', *, *, #5, .F. ) ;
#148 = APPROVAL_STATUS ( 'not_yet_approved' ) ;
#149 = PRODUCT_RELATED_PRODUCT_CATEGORY ( 'detail', '', ( #10 ) ) ;
#150 = CARTESIAN_POINT ( 'NONE',  ( -12.49999999999999800, 12.49999999999999800, 1.500000000000000000 ) ) ;
#151 = ORIENTED_EDGE ( 'NONE', *, *, #76, .T. ) ;
#152 = ADVANCED_FACE ( 'NONE', ( #49 ), #36, .F. ) ;
#153 = UNCERTAINTY_MEASURE_WITH_UNIT (LENGTH_MEASURE( 1.000000000000000100E-005 ), #67, 'distance_accuracy_value', 'NONE');
#154 = COORDINATED_UNIVERSAL_TIME_OFFSET ( 5, 0, .BEHIND. ) ;
#155 = FACE_OUTER_BOUND ( 'NONE', #237, .T. ) ;
#156 = ORIENTED_EDGE ( 'NONE', *, *, #220, .F. ) ;
#157 = PLANE ( 'NONE',  #96 ) ;
#158 = CC_DESIGN_SECURITY_CLASSIFICATION ( #189, ( #166 ) ) ;
#159 = DIRECTION ( 'NONE',  ( 1.000000000000000000, 0.0000000000000000000, 0.0000000000000000000 ) ) ;
#160 = CARTESIAN_POINT ( 'NONE',  ( 0.0000000000000000000, 0.0000000000000000000, 1.500000000000000000 ) ) ;
#161 = DATE_AND_TIME ( #80, #206 ) ;
#162 = VECTOR ( 'NONE', #112, 1000.000000000000000 ) ;
#163 = EDGE_CURVE ( 'NONE', #8, #110, #16, .T. ) ;
#164 = FACE_OUTER_BOUND ( 'NONE', #216, .T. ) ;
#165 = CARTESIAN_POINT ( 'NONE',  ( 12.50000000000000000, -12.50000000000000000, -1.500000000000000000 ) ) ;
#166 = PRODUCT_DEFINITION_FORMATION_WITH_SPECIFIED_SOURCE ( 'ANY', '', #10, .NOT_KNOWN. ) ;
#167 = PERSON_AND_ORGANIZATION ( #70, #39 ) ;
#168 = LINE ( 'NONE', #90, #13 ) ;
#169 = PERSON_AND_ORGANIZATION ( #70, #39 ) ;
#170 = VECTOR ( 'NONE', #234, 1000.000000000000000 ) ;
#171 = APPROVAL ( #148, 'UNSPECIFIED' ) ;
#172 = CARTESIAN_POINT ( 'NONE',  ( 0.0000000000000000000, 0.0000000000000000000, -1.500000000000000000 ) ) ;
#173 = CARTESIAN_POINT ( 'NONE',  ( -12.49999999999999800, -12.50000000000000000, 1.500000000000000000 ) ) ;
#174 = APPROVAL_DATE_TIME ( #87, #171 ) ;
#175 = ORIENTED_EDGE ( 'NONE', *, *, #223, .F. ) ;
#176 = MECHANICAL_CONTEXT ( 'NONE', #228, 'mechanical' ) ;
#177 = DIRECTION ( 'NONE',  ( -1.000000000000000000, 0.0000000000000000000, -0.0000000000000000000 ) ) ;
#178 = PERSON_AND_ORGANIZATION_ROLE ( 'classification_officer' ) ;
#179 = EDGE_CURVE ( 'NONE', #42, #66, #37, .T. ) ;
#180 = CARTESIAN_POINT ( 'NONE',  ( -12.49999999999999800, 12.49999999999999800, -1.500000000000000000 ) ) ;
#181 = CALENDAR_DATE ( 2017, 13, 7 ) ;
#182 = CARTESIAN_POINT ( 'NONE',  ( -12.49999999999999800, -12.50000000000000000, 1.500000000000000000 ) ) ;
#183 = COORDINATED_UNIVERSAL_TIME_OFFSET ( 5, 0, .BEHIND. ) ;
#184 = DIRECTION ( 'NONE',  ( 0.0000000000000000000, 0.0000000000000000000, -1.000000000000000000 ) ) ;
#185 = ORIENTED_EDGE ( 'NONE', *, *, #44, .T. ) ;
#186 = ADVANCED_FACE ( 'NONE', ( #60 ), #133, .T. ) ;
#187 = LINE ( 'NONE', #77, #2 ) ;
#188 = ADVANCED_FACE ( 'NONE', ( #164 ), #157, .F. ) ;
#189 = SECURITY_CLASSIFICATION ( '', '', #100 ) ;
#190 = CC_DESIGN_APPROVAL ( #102, ( #166 ) ) ;
#191 = DATE_AND_TIME ( #127, #20 ) ;
#192 = DIRECTION ( 'NONE',  ( 0.0000000000000000000, 0.0000000000000000000, -1.000000000000000000 ) ) ;
#193 = ORIENTED_EDGE ( 'NONE', *, *, #139, .F. ) ;
#194 = DIRECTION ( 'NONE',  ( 0.0000000000000000000, -0.0000000000000000000, -1.000000000000000000 ) ) ;
#195 = EDGE_CURVE ( 'NONE', #104, #58, #208, .T. ) ;
#196 = DATE_AND_TIME ( #181, #69 ) ;
#197 = EDGE_LOOP ( 'NONE', ( #224, #156, #132, #72 ) ) ;
#198 = DIRECTION ( 'NONE',  ( -0.0000000000000000000, -1.000000000000000000, -0.0000000000000000000 ) ) ;
#199 = LOCAL_TIME ( 9, 29, 25.00000000000000000, #203 ) ;
#200 = ORIENTED_EDGE ( 'NONE', *, *, #233, .F. ) ;
#201 = PERSON_AND_ORGANIZATION_ROLE ( 'design_supplier' ) ;
#202 = CC_DESIGN_DATE_AND_TIME_ASSIGNMENT ( #161, #83, ( #189 ) ) ;
#203 = COORDINATED_UNIVERSAL_TIME_OFFSET ( 5, 0, .BEHIND. ) ;
#204 = CARTESIAN_POINT ( 'NONE',  ( -12.49999999999999800, -12.50000000000000000, 1.500000000000000000 ) ) ;
#205 = ADVANCED_FACE ( 'NONE', ( #108 ), #63, .F. ) ;
#206 = LOCAL_TIME ( 9, 29, 25.00000000000000000, #209 ) ;
#207 = ADVANCED_BREP_SHAPE_REPRESENTATION ( 'Web Model 46068_46072', ( #3, #88 ), #59 ) ;
#208 = LINE ( 'NONE', #23, #232 ) ;
#209 = COORDINATED_UNIVERSAL_TIME_OFFSET ( 5, 0, .BEHIND. ) ;
#210 = DIRECTION ( 'NONE',  ( 0.0000000000000000000, 1.000000000000000000, 0.0000000000000000000 ) ) ;
#211 = CC_DESIGN_APPROVAL ( #71, ( #89 ) ) ;
#212 = DIRECTION ( 'NONE',  ( -0.0000000000000000000, -0.0000000000000000000, -1.000000000000000000 ) ) ;
#213 = PERSON_AND_ORGANIZATION_ROLE ( 'design_owner' ) ;
#214 = AXIS2_PLACEMENT_3D ( 'NONE', #173, #210, #93 ) ;
#215 = VECTOR ( 'NONE', #126, 1000.000000000000000 ) ;
#216 = EDGE_LOOP ( 'NONE', ( #4, #31, #185, #14 ) ) ;
#217 = DIRECTION ( 'NONE',  ( 0.0000000000000000000, 1.000000000000000000, 0.0000000000000000000 ) ) ;
#218 = SHAPE_DEFINITION_REPRESENTATION ( #79, #207 ) ;
#219 = ORIENTED_EDGE ( 'NONE', *, *, #1, .F. ) ;
#220 = EDGE_CURVE ( 'NONE', #58, #110, #168, .T. ) ;
#221 = CARTESIAN_POINT ( 'NONE',  ( 12.50000000000000000, 12.49999999999999800, -1.500000000000000000 ) ) ;
#222 = CC_DESIGN_PERSON_AND_ORGANIZATION_ASSIGNMENT ( #169, #201, ( #166 ) ) ;
#223 = EDGE_CURVE ( 'NONE', #58, #135, #57, .T. ) ;
#224 = ORIENTED_EDGE ( 'NONE', *, *, #163, .T. ) ;
#225 =( NAMED_UNIT ( * ) PLANE_ANGLE_UNIT ( ) SI_UNIT ( $, .RADIAN. ) );
#226 = ORIENTED_EDGE ( 'NONE', *, *, #1, .T. ) ;
#227 = APPLICATION_PROTOCOL_DEFINITION ( 'international standard', 'config_control_design', 1994, #6 ) ;
#228 = APPLICATION_CONTEXT ( 'configuration controlled 3d designs of mechanical parts and assemblies' ) ;
#229 = CARTESIAN_POINT ( 'NONE',  ( -12.49999999999999800, 12.49999999999999800, 1.500000000000000000 ) ) ;
#230 = APPROVAL_PERSON_ORGANIZATION ( #56, #71, #11 ) ;
#231 = ORIENTED_EDGE ( 'NONE', *, *, #7, .F. ) ;
#232 = VECTOR ( 'NONE', #217, 1000.000000000000000 ) ;
#233 = EDGE_CURVE ( 'NONE', #135, #42, #187, .T. ) ;
#234 = DIRECTION ( 'NONE',  ( -0.0000000000000000000, -0.0000000000000000000, -1.000000000000000000 ) ) ;
#235 = ORIENTED_EDGE ( 'NONE', *, *, #179, .T. ) ;
#236 = PERSON_AND_ORGANIZATION ( #70, #39 ) ;
#237 = EDGE_LOOP ( 'NONE', ( #235, #231, #61, #50 ) ) ;
ENDSEC;
END-ISO-10303-21;
