ISO-10303-21;
HEADER;
FILE_DESCRIPTION (( 'STEP AP203' ),
    '1' );
FILE_NAME ('Web Model 30648_2105.step',
    '2017-04-29T14:34:40',
    ( '' ),
    ( '' ),
    'SwSTEP 2.0',
    'SolidWorks 2016',
    '' );
FILE_SCHEMA (( 'CONFIG_CONTROL_DESIGN' ));
ENDSEC;

DATA;
#1 = EDGE_CURVE ( 'NONE', #175, #61, #90, .T. ) ;
#2 = FACE_OUTER_BOUND ( 'NONE', #84, .T. ) ;
#3 =( NAMED_UNIT ( * ) SI_UNIT ( $, .STERADIAN. ) SOLID_ANGLE_UNIT ( ) );
#4 = PERSON_AND_ORGANIZATION_ROLE ( 'creator' ) ;
#5 = CARTESIAN_POINT ( 'NONE',  ( 0.0000000000000000000, 0.0000000000000000000, 0.0000000000000000000 ) ) ;
#6 = CARTESIAN_POINT ( 'NONE',  ( 0.0000000000000000000, 0.0000000000000000000, 1.500000000000000000 ) ) ;
#7 = CLOSED_SHELL ( 'NONE', ( #8, #149, #86, #135 ) ) ;
#8 = ADVANCED_FACE ( 'NONE', ( #85 ), #94, .T. ) ;
#9 = EDGE_CURVE ( 'NONE', #61, #175, #151, .T. ) ;
#10 = PERSON_AND_ORGANIZATION ( #59, #127 ) ;
#11 = DATE_AND_TIME ( #133, #38 ) ;
#12 = APPROVAL_DATE_TIME ( #141, #136 ) ;
#13 = APPLICATION_PROTOCOL_DEFINITION ( 'international standard', 'config_control_design', 1994, #30 ) ;
#14 = EDGE_CURVE ( 'NONE', #61, #18, #16, .T. ) ;
#15 = APPROVAL_STATUS ( 'not_yet_approved' ) ;
#16 = LINE ( 'NONE', #163, #36 ) ;
#17 = DIRECTION ( 'NONE',  ( 1.000000000000000000, 0.0000000000000000000, -0.0000000000000000000 ) ) ;
#18 = VERTEX_POINT ( 'NONE', #82 ) ;
#19 = COORDINATED_UNIVERSAL_TIME_OFFSET ( 5, 0, .BEHIND. ) ;
#20 = CALENDAR_DATE ( 2017, 29, 4 ) ;
#21 = CARTESIAN_POINT ( 'NONE',  ( 0.0000000000000000000, 0.0000000000000000000, 1.500000000000000000 ) ) ;
#22 = CYLINDRICAL_SURFACE ( 'NONE', #131, 6.250000000000000000 ) ;
#23 = EDGE_LOOP ( 'NONE', ( #114, #104 ) ) ;
#24 = LOCAL_TIME ( 10, 34, 40.00000000000000000, #19 ) ;
#25 = ORIENTED_EDGE ( 'NONE', *, *, #27, .T. ) ;
#26 = FACE_OUTER_BOUND ( 'NONE', #23, .T. ) ;
#27 = EDGE_CURVE ( 'NONE', #123, #18, #110, .T. ) ;
#28 = DATE_AND_TIME ( #80, #24 ) ;
#29 = CC_DESIGN_APPROVAL ( #66, ( #56 ) ) ;
#30 = APPLICATION_CONTEXT ( 'configuration controlled 3d designs of mechanical parts and assemblies' ) ;
#31 = PERSON_AND_ORGANIZATION_ROLE ( 'creator' ) ;
#32 = DIRECTION ( 'NONE',  ( 0.0000000000000000000, 0.0000000000000000000, 1.000000000000000000 ) ) ;
#33 = ORIENTED_EDGE ( 'NONE', *, *, #14, .T. ) ;
#34 = DIRECTION ( 'NONE',  ( 0.0000000000000000000, 0.0000000000000000000, 1.000000000000000000 ) ) ;
#35 = ORIENTED_EDGE ( 'NONE', *, *, #9, .T. ) ;
#36 = VECTOR ( 'NONE', #97, 1000.000000000000000 ) ;
#37 = DATE_AND_TIME ( #101, #155 ) ;
#38 = LOCAL_TIME ( 10, 34, 40.00000000000000000, #46 ) ;
#39 = AXIS2_PLACEMENT_3D ( 'NONE', #74, #73, #172 ) ;
#40 = DIRECTION ( 'NONE',  ( -0.0000000000000000000, -0.0000000000000000000, -1.000000000000000000 ) ) ;
#41 = COORDINATED_UNIVERSAL_TIME_OFFSET ( 5, 0, .BEHIND. ) ;
#42 = DIRECTION ( 'NONE',  ( 1.000000000000000000, 0.0000000000000000000, 0.0000000000000000000 ) ) ;
#43 = EDGE_LOOP ( 'NONE', ( #147, #33, #99, #166 ) ) ;
#44 = CC_DESIGN_PERSON_AND_ORGANIZATION_ASSIGNMENT ( #164, #4, ( #56 ) ) ;
#45 = CIRCLE ( 'NONE', #121, 6.250000000000000000 ) ;
#46 = COORDINATED_UNIVERSAL_TIME_OFFSET ( 5, 0, .BEHIND. ) ;
#47 = PERSON_AND_ORGANIZATION ( #59, #127 ) ;
#48 = DIRECTION ( 'NONE',  ( 1.000000000000000000, 0.0000000000000000000, 0.0000000000000000000 ) ) ;
#49 = AXIS2_PLACEMENT_3D ( 'NONE', #67, #34, #157 ) ;
#50 = SECURITY_CLASSIFICATION_LEVEL ( 'unclassified' ) ;
#51 = PLANE ( 'NONE',  #112 ) ;
#52 = DIRECTION ( 'NONE',  ( 0.0000000000000000000, 0.0000000000000000000, 1.000000000000000000 ) ) ;
#53 = PRODUCT_DEFINITION_SHAPE ( 'NONE', 'NONE',  #56 ) ;
#54 = APPROVAL_PERSON_ORGANIZATION ( #47, #136, #79 ) ;
#55 = CC_DESIGN_DATE_AND_TIME_ASSIGNMENT ( #37, #105, ( #56 ) ) ;
#56 = PRODUCT_DEFINITION ( 'UNKNOWN', '', #62, #160 ) ;
#57 = DIRECTION ( 'NONE',  ( 0.0000000000000000000, 0.0000000000000000000, 1.000000000000000000 ) ) ;
#58 = DIRECTION ( 'NONE',  ( -1.000000000000000000, 0.0000000000000000000, 0.0000000000000000000 ) ) ;
#59 = PERSON ( 'UNSPECIFIED', 'UNSPECIFIED', 'UNSPECIFIED', ('UNSPECIFIED'), ('UNSPECIFIED'), ('UNSPECIFIED') ) ;
#60 = AXIS2_PLACEMENT_3D ( 'NONE', #138, #57, #42 ) ;
#61 = VERTEX_POINT ( 'NONE', #132 ) ;
#62 = PRODUCT_DEFINITION_FORMATION_WITH_SPECIFIED_SOURCE ( 'ANY', '', #153, .NOT_KNOWN. ) ;
#63 = PERSON_AND_ORGANIZATION_ROLE ( 'design_owner' ) ;
#64 = PERSON_AND_ORGANIZATION ( #59, #127 ) ;
#65 = DATE_TIME_ROLE ( 'classification_date' ) ;
#66 = APPROVAL ( #170, 'UNSPECIFIED' ) ;
#67 = CARTESIAN_POINT ( 'NONE',  ( 0.0000000000000000000, 0.0000000000000000000, 0.0000000000000000000 ) ) ;
#68 = AXIS2_PLACEMENT_3D ( 'NONE', #92, #129, #48 ) ;
#69 = CALENDAR_DATE ( 2017, 29, 4 ) ;
#70 = ORIENTED_EDGE ( 'NONE', *, *, #169, .T. ) ;
#71 = AXIS2_PLACEMENT_3D ( 'NONE', #150, #173, #148 ) ;
#72 = CARTESIAN_POINT ( 'NONE',  ( -6.250000000000000000, 0.0000000000000000000, 1.500000000000000000 ) ) ;
#73 = DIRECTION ( 'NONE',  ( 0.0000000000000000000, 0.0000000000000000000, 1.000000000000000000 ) ) ;
#74 = CARTESIAN_POINT ( 'NONE',  ( 0.0000000000000000000, 0.0000000000000000000, 1.500000000000000000 ) ) ;
#75 = APPROVAL ( #15, 'UNSPECIFIED' ) ;
#76 = ORIENTED_EDGE ( 'NONE', *, *, #1, .F. ) ;
#77 = APPROVAL_PERSON_ORGANIZATION ( #137, #66, #89 ) ;
#78 = APPLICATION_PROTOCOL_DEFINITION ( 'international standard', 'config_control_design', 1994, #156 ) ;
#79 = APPROVAL_ROLE ( '' ) ;
#80 = CALENDAR_DATE ( 2017, 29, 4 ) ;
#81 = CC_DESIGN_APPROVAL ( #75, ( #62 ) ) ;
#82 = CARTESIAN_POINT ( 'NONE',  ( 6.250000000000000000, 7.654042494670957600E-016, 0.0000000000000000000 ) ) ;
#83 = LOCAL_TIME ( 10, 34, 40.00000000000000000, #98 ) ;
#84 = EDGE_LOOP ( 'NONE', ( #139, #35 ) ) ;
#85 = FACE_OUTER_BOUND ( 'NONE', #43, .T. ) ;
#86 = ADVANCED_FACE ( 'NONE', ( #2 ), #96, .T. ) ;
#87 =( NAMED_UNIT ( * ) PLANE_ANGLE_UNIT ( ) SI_UNIT ( $, .RADIAN. ) );
#88 = CC_DESIGN_PERSON_AND_ORGANIZATION_ASSIGNMENT ( #119, #31, ( #62 ) ) ;
#89 = APPROVAL_ROLE ( '' ) ;
#90 = CIRCLE ( 'NONE', #39, 6.250000000000000000 ) ;
#91 = CARTESIAN_POINT ( 'NONE',  ( -6.250000000000000000, 0.0000000000000000000, 0.0000000000000000000 ) ) ;
#92 = CARTESIAN_POINT ( 'NONE',  ( 0.0000000000000000000, 0.0000000000000000000, 0.0000000000000000000 ) ) ;
#93 = AXIS2_PLACEMENT_3D ( 'NONE', #6, #52, #17 ) ;
#94 = CYLINDRICAL_SURFACE ( 'NONE', #71, 6.250000000000000000 ) ;
#95 = DIRECTION ( 'NONE',  ( -0.0000000000000000000, -0.0000000000000000000, -1.000000000000000000 ) ) ;
#96 = PLANE ( 'NONE',  #93 ) ;
#97 = DIRECTION ( 'NONE',  ( -0.0000000000000000000, -0.0000000000000000000, -1.000000000000000000 ) ) ;
#98 = COORDINATED_UNIVERSAL_TIME_OFFSET ( 5, 0, .BEHIND. ) ;
#99 = ORIENTED_EDGE ( 'NONE', *, *, #152, .T. ) ;
#100 = CC_DESIGN_PERSON_AND_ORGANIZATION_ASSIGNMENT ( #64, #130, ( #62 ) ) ;
#101 = CALENDAR_DATE ( 2017, 29, 4 ) ;
#102 = APPROVAL_DATE_TIME ( #28, #75 ) ;
#103 = APPROVAL_DATE_TIME ( #124, #66 ) ;
#104 = ORIENTED_EDGE ( 'NONE', *, *, #152, .F. ) ;
#105 = DATE_TIME_ROLE ( 'creation_date' ) ;
#106 =( GEOMETRIC_REPRESENTATION_CONTEXT ( 3 ) GLOBAL_UNCERTAINTY_ASSIGNED_CONTEXT ( ( #167 ) ) GLOBAL_UNIT_ASSIGNED_CONTEXT ( ( #168, #87, #3 ) ) REPRESENTATION_CONTEXT ( 'NONE', 'WORKASPACE' ) );
#107 = SECURITY_CLASSIFICATION ( '', '', #50 ) ;
#108 = CC_DESIGN_PERSON_AND_ORGANIZATION_ASSIGNMENT ( #10, #63, ( #153 ) ) ;
#109 = SHAPE_DEFINITION_REPRESENTATION ( #53, #134 ) ;
#110 = CIRCLE ( 'NONE', #49, 6.250000000000000000 ) ;
#111 = MANIFOLD_SOLID_BREP ( 'Extrude1', #7 ) ;
#112 = AXIS2_PLACEMENT_3D ( 'NONE', #5, #32, #117 ) ;
#113 = PERSON_AND_ORGANIZATION ( #59, #127 ) ;
#114 = ORIENTED_EDGE ( 'NONE', *, *, #27, .F. ) ;
#115 = CC_DESIGN_PERSON_AND_ORGANIZATION_ASSIGNMENT ( #174, #144, ( #107 ) ) ;
#116 = APPROVAL_ROLE ( '' ) ;
#117 = DIRECTION ( 'NONE',  ( 1.000000000000000000, 0.0000000000000000000, -0.0000000000000000000 ) ) ;
#118 = LOCAL_TIME ( 10, 34, 40.00000000000000000, #41 ) ;
#119 = PERSON_AND_ORGANIZATION ( #59, #127 ) ;
#120 = FACE_OUTER_BOUND ( 'NONE', #126, .T. ) ;
#121 = AXIS2_PLACEMENT_3D ( 'NONE', #145, #171, #122 ) ;
#122 = DIRECTION ( 'NONE',  ( 1.000000000000000000, 0.0000000000000000000, 0.0000000000000000000 ) ) ;
#123 = VERTEX_POINT ( 'NONE', #91 ) ;
#124 = DATE_AND_TIME ( #69, #118 ) ;
#125 = CC_DESIGN_DATE_AND_TIME_ASSIGNMENT ( #11, #65, ( #107 ) ) ;
#126 = EDGE_LOOP ( 'NONE', ( #159, #76, #70, #25 ) ) ;
#127 = ORGANIZATION ( 'UNSPECIFIED', 'UNSPECIFIED', '' ) ;
#128 = APPROVAL_PERSON_ORGANIZATION ( #113, #75, #116 ) ;
#129 = DIRECTION ( 'NONE',  ( 0.0000000000000000000, 0.0000000000000000000, 1.000000000000000000 ) ) ;
#130 = PERSON_AND_ORGANIZATION_ROLE ( 'design_supplier' ) ;
#131 = AXIS2_PLACEMENT_3D ( 'NONE', #21, #40, #58 ) ;
#132 = CARTESIAN_POINT ( 'NONE',  ( 6.250000000000000000, 7.654042494670957600E-016, 1.500000000000000000 ) ) ;
#133 = CALENDAR_DATE ( 2017, 29, 4 ) ;
#134 = ADVANCED_BREP_SHAPE_REPRESENTATION ( 'Web Model 30648_2105', ( #111, #68 ), #106 ) ;
#135 = ADVANCED_FACE ( 'NONE', ( #26 ), #51, .F. ) ;
#136 = APPROVAL ( #158, 'UNSPECIFIED' ) ;
#137 = PERSON_AND_ORGANIZATION ( #59, #127 ) ;
#138 = CARTESIAN_POINT ( 'NONE',  ( 0.0000000000000000000, 0.0000000000000000000, 1.500000000000000000 ) ) ;
#139 = ORIENTED_EDGE ( 'NONE', *, *, #1, .T. ) ;
#140 = VECTOR ( 'NONE', #95, 1000.000000000000000 ) ;
#141 = DATE_AND_TIME ( #20, #83 ) ;
#142 = MECHANICAL_CONTEXT ( 'NONE', #30, 'mechanical' ) ;
#143 = CC_DESIGN_APPROVAL ( #136, ( #107 ) ) ;
#144 = PERSON_AND_ORGANIZATION_ROLE ( 'classification_officer' ) ;
#145 = CARTESIAN_POINT ( 'NONE',  ( 0.0000000000000000000, 0.0000000000000000000, 0.0000000000000000000 ) ) ;
#146 = LINE ( 'NONE', #72, #140 ) ;
#147 = ORIENTED_EDGE ( 'NONE', *, *, #9, .F. ) ;
#148 = DIRECTION ( 'NONE',  ( -1.000000000000000000, 0.0000000000000000000, 0.0000000000000000000 ) ) ;
#149 = ADVANCED_FACE ( 'NONE', ( #120 ), #22, .T. ) ;
#150 = CARTESIAN_POINT ( 'NONE',  ( 0.0000000000000000000, 0.0000000000000000000, 1.500000000000000000 ) ) ;
#151 = CIRCLE ( 'NONE', #60, 6.250000000000000000 ) ;
#152 = EDGE_CURVE ( 'NONE', #18, #123, #45, .T. ) ;
#153 = PRODUCT ( 'Web Model 30648_2105', 'Web Model 30648_2105', '', ( #142 ) ) ;
#154 = CC_DESIGN_SECURITY_CLASSIFICATION ( #107, ( #62 ) ) ;
#155 = LOCAL_TIME ( 10, 34, 40.00000000000000000, #165 ) ;
#156 = APPLICATION_CONTEXT ( 'configuration controlled 3d designs of mechanical parts and assemblies' ) ;
#157 = DIRECTION ( 'NONE',  ( 1.000000000000000000, 0.0000000000000000000, 0.0000000000000000000 ) ) ;
#158 = APPROVAL_STATUS ( 'not_yet_approved' ) ;
#159 = ORIENTED_EDGE ( 'NONE', *, *, #14, .F. ) ;
#160 = DESIGN_CONTEXT ( 'detailed design', #156, 'design' ) ;
#161 = PRODUCT_RELATED_PRODUCT_CATEGORY ( 'detail', '', ( #153 ) ) ;
#162 = CARTESIAN_POINT ( 'NONE',  ( -6.250000000000000000, 0.0000000000000000000, 1.500000000000000000 ) ) ;
#163 = CARTESIAN_POINT ( 'NONE',  ( 6.250000000000000000, 7.654042494670957600E-016, 1.500000000000000000 ) ) ;
#164 = PERSON_AND_ORGANIZATION ( #59, #127 ) ;
#165 = COORDINATED_UNIVERSAL_TIME_OFFSET ( 5, 0, .BEHIND. ) ;
#166 = ORIENTED_EDGE ( 'NONE', *, *, #169, .F. ) ;
#167 = UNCERTAINTY_MEASURE_WITH_UNIT (LENGTH_MEASURE( 1.000000000000000100E-005 ), #168, 'distance_accuracy_value', 'NONE');
#168 =( LENGTH_UNIT ( ) NAMED_UNIT ( * ) SI_UNIT ( .MILLI., .METRE. ) );
#169 = EDGE_CURVE ( 'NONE', #175, #123, #146, .T. ) ;
#170 = APPROVAL_STATUS ( 'not_yet_approved' ) ;
#171 = DIRECTION ( 'NONE',  ( 0.0000000000000000000, 0.0000000000000000000, 1.000000000000000000 ) ) ;
#172 = DIRECTION ( 'NONE',  ( 1.000000000000000000, 0.0000000000000000000, 0.0000000000000000000 ) ) ;
#173 = DIRECTION ( 'NONE',  ( -0.0000000000000000000, -0.0000000000000000000, -1.000000000000000000 ) ) ;
#174 = PERSON_AND_ORGANIZATION ( #59, #127 ) ;
#175 = VERTEX_POINT ( 'NONE', #162 ) ;
ENDSEC;
END-ISO-10303-21;
