ISO-10303-21;
HEADER;
FILE_DESCRIPTION (( 'STEP AP203' ),
    '1' );
FILE_NAME ('Web Model 47522.STEP',
    '2017-01-31T15:20:49',
    ( '' ),
    ( '' ),
    'SwSTEP 2.0',
    'SolidWorks 2016',
    '' );
FILE_SCHEMA (( 'CONFIG_CONTROL_DESIGN' ));
ENDSEC;

DATA;
#1 = VERTEX_POINT ( 'NONE', #111 ) ;
#2 = AXIS2_PLACEMENT_3D ( 'NONE', #68, #69, #47 ) ;
#3 = PERSON_AND_ORGANIZATION ( #166, #135 ) ;
#4 = ORIENTED_EDGE ( 'NONE', *, *, #127, .T. ) ;
#5 = EDGE_LOOP ( 'NONE', ( #137, #28, #154, #164 ) ) ;
#6 = CARTESIAN_POINT ( 'NONE',  ( 0.0000000000000000000, 0.0000000000000000000, 0.0000000000000000000 ) ) ;
#7 = DATE_AND_TIME ( #93, #101 ) ;
#8 = DIRECTION ( 'NONE',  ( 1.000000000000000000, 0.0000000000000000000, 0.0000000000000000000 ) ) ;
#9 = APPROVAL_DATE_TIME ( #147, #132 ) ;
#10 = CC_DESIGN_APPROVAL ( #81, ( #42 ) ) ;
#11 =( GEOMETRIC_REPRESENTATION_CONTEXT ( 3 ) GLOBAL_UNCERTAINTY_ASSIGNED_CONTEXT ( ( #79 ) ) GLOBAL_UNIT_ASSIGNED_CONTEXT ( ( #112, #100, #89 ) ) REPRESENTATION_CONTEXT ( 'NONE', 'WORKASPACE' ) );
#12 = PERSON_AND_ORGANIZATION ( #166, #135 ) ;
#13 = EDGE_LOOP ( 'NONE', ( #78, #54 ) ) ;
#14 = LOCAL_TIME ( 10, 20, 49.00000000000000000, #55 ) ;
#15 = CARTESIAN_POINT ( 'NONE',  ( 0.0000000000000000000, 0.0000000000000000000, -4.000000000000000000 ) ) ;
#16 = AXIS2_PLACEMENT_3D ( 'NONE', #131, #172, #30 ) ;
#17 = CC_DESIGN_PERSON_AND_ORGANIZATION_ASSIGNMENT ( #150, #169, ( #42 ) ) ;
#18 = CC_DESIGN_PERSON_AND_ORGANIZATION_ASSIGNMENT ( #3, #85, ( #42 ) ) ;
#19 = APPROVAL_ROLE ( '' ) ;
#20 = PERSON_AND_ORGANIZATION ( #166, #135 ) ;
#21 = DIRECTION ( 'NONE',  ( 1.000000000000000000, 0.0000000000000000000, 0.0000000000000000000 ) ) ;
#22 = CC_DESIGN_APPROVAL ( #108, ( #174 ) ) ;
#23 = CARTESIAN_POINT ( 'NONE',  ( 0.0000000000000000000, 0.0000000000000000000, -4.000000000000000000 ) ) ;
#24 = ORIENTED_EDGE ( 'NONE', *, *, #26, .F. ) ;
#25 = PERSON_AND_ORGANIZATION ( #166, #135 ) ;
#26 = EDGE_CURVE ( 'NONE', #73, #1, #102, .T. ) ;
#27 = SHAPE_DEFINITION_REPRESENTATION ( #124, #92 ) ;
#28 = ORIENTED_EDGE ( 'NONE', *, *, #39, .T. ) ;
#29 = ADVANCED_FACE ( 'NONE', ( #118 ), #84, .T. ) ;
#30 = DIRECTION ( 'NONE',  ( 1.000000000000000000, 0.0000000000000000000, 0.0000000000000000000 ) ) ;
#31 = DIRECTION ( 'NONE',  ( 1.000000000000000000, 0.0000000000000000000, 0.0000000000000000000 ) ) ;
#32 = FACE_OUTER_BOUND ( 'NONE', #13, .T. ) ;
#33 = MECHANICAL_CONTEXT ( 'NONE', #122, 'mechanical' ) ;
#34 = DIRECTION ( 'NONE',  ( 0.0000000000000000000, 0.0000000000000000000, 1.000000000000000000 ) ) ;
#35 = CC_DESIGN_SECURITY_CLASSIFICATION ( #174, ( #42 ) ) ;
#36 = DIRECTION ( 'NONE',  ( 0.0000000000000000000, 0.0000000000000000000, 1.000000000000000000 ) ) ;
#37 = APPROVAL_PERSON_ORGANIZATION ( #12, #81, #19 ) ;
#38 = DESIGN_CONTEXT ( 'detailed design', #121, 'design' ) ;
#39 = EDGE_CURVE ( 'NONE', #63, #73, #139, .T. ) ;
#40 = APPROVAL_DATE_TIME ( #97, #108 ) ;
#41 = CALENDAR_DATE ( 2017, 31, 1 ) ;
#42 = PRODUCT_DEFINITION_FORMATION_WITH_SPECIFIED_SOURCE ( 'ANY', '', #48, .NOT_KNOWN. ) ;
#43 = VERTEX_POINT ( 'NONE', #50 ) ;
#44 = DIRECTION ( 'NONE',  ( 1.000000000000000000, 0.0000000000000000000, 0.0000000000000000000 ) ) ;
#45 = APPROVAL_STATUS ( 'not_yet_approved' ) ;
#46 = CC_DESIGN_PERSON_AND_ORGANIZATION_ASSIGNMENT ( #119, #98, ( #48 ) ) ;
#47 = DIRECTION ( 'NONE',  ( 1.000000000000000000, 0.0000000000000000000, 0.0000000000000000000 ) ) ;
#48 = PRODUCT ( 'Web Model 47522', 'Web Model 47522', '', ( #33 ) ) ;
#49 = APPROVAL_STATUS ( 'not_yet_approved' ) ;
#50 = CARTESIAN_POINT ( 'NONE',  ( -20.00000000000000000, 2.449293598294706500E-015, 0.0000000000000000000 ) ) ;
#51 = CARTESIAN_POINT ( 'NONE',  ( 20.00000000000000000, 0.0000000000000000000, -4.000000000000000000 ) ) ;
#52 = CARTESIAN_POINT ( 'NONE',  ( -20.00000000000000000, 2.449293598294706500E-015, -4.000000000000000000 ) ) ;
#53 = LOCAL_TIME ( 10, 20, 49.00000000000000000, #120 ) ;
#54 = ORIENTED_EDGE ( 'NONE', *, *, #39, .F. ) ;
#55 = COORDINATED_UNIVERSAL_TIME_OFFSET ( 5, 0, .BEHIND. ) ;
#56 = PRODUCT_RELATED_PRODUCT_CATEGORY ( 'detail', '', ( #48 ) ) ;
#57 = CC_DESIGN_PERSON_AND_ORGANIZATION_ASSIGNMENT ( #146, #109, ( #174 ) ) ;
#58 = APPROVAL_PERSON_ORGANIZATION ( #20, #132, #115 ) ;
#59 = VECTOR ( 'NONE', #36, 1000.000000000000000 ) ;
#60 = AXIS2_PLACEMENT_3D ( 'NONE', #6, #34, #21 ) ;
#61 = ADVANCED_FACE ( 'NONE', ( #152 ), #128, .T. ) ;
#62 = EDGE_CURVE ( 'NONE', #1, #43, #90, .T. ) ;
#63 = VERTEX_POINT ( 'NONE', #167 ) ;
#64 = DIRECTION ( 'NONE',  ( 1.000000000000000000, 0.0000000000000000000, 0.0000000000000000000 ) ) ;
#65 = DIRECTION ( 'NONE',  ( 1.000000000000000000, 0.0000000000000000000, -0.0000000000000000000 ) ) ;
#66 = COORDINATED_UNIVERSAL_TIME_OFFSET ( 5, 0, .BEHIND. ) ;
#67 = APPROVAL_ROLE ( '' ) ;
#68 = CARTESIAN_POINT ( 'NONE',  ( 0.0000000000000000000, 0.0000000000000000000, -4.000000000000000000 ) ) ;
#69 = DIRECTION ( 'NONE',  ( 0.0000000000000000000, 0.0000000000000000000, 1.000000000000000000 ) ) ;
#70 = MANIFOLD_SOLID_BREP ( 'Extrude1', #136 ) ;
#71 = APPLICATION_PROTOCOL_DEFINITION ( 'international standard', 'config_control_design', 1994, #121 ) ;
#72 = DIRECTION ( 'NONE',  ( 0.0000000000000000000, 0.0000000000000000000, 1.000000000000000000 ) ) ;
#73 = VERTEX_POINT ( 'NONE', #51 ) ;
#74 = COORDINATED_UNIVERSAL_TIME_OFFSET ( 5, 0, .BEHIND. ) ;
#75 = PRODUCT_DEFINITION ( 'UNKNOWN', '', #42, #38 ) ;
#76 = LINE ( 'NONE', #52, #106 ) ;
#77 = AXIS2_PLACEMENT_3D ( 'NONE', #15, #155, #8 ) ;
#78 = ORIENTED_EDGE ( 'NONE', *, *, #103, .F. ) ;
#79 = UNCERTAINTY_MEASURE_WITH_UNIT (LENGTH_MEASURE( 1.000000000000000100E-005 ), #112, 'distance_accuracy_value', 'NONE');
#80 = CIRCLE ( 'NONE', #107, 20.00000000000000000 ) ;
#81 = APPROVAL ( #157, 'UNSPECIFIED' ) ;
#82 = ADVANCED_FACE ( 'NONE', ( #32 ), #153, .F. ) ;
#83 = DIRECTION ( 'NONE',  ( 0.0000000000000000000, 0.0000000000000000000, 1.000000000000000000 ) ) ;
#84 = CYLINDRICAL_SURFACE ( 'NONE', #2, 20.00000000000000000 ) ;
#85 = PERSON_AND_ORGANIZATION_ROLE ( 'design_supplier' ) ;
#86 = DIRECTION ( 'NONE',  ( 0.0000000000000000000, 0.0000000000000000000, 1.000000000000000000 ) ) ;
#87 = APPLICATION_PROTOCOL_DEFINITION ( 'international standard', 'config_control_design', 1994, #122 ) ;
#88 = CARTESIAN_POINT ( 'NONE',  ( 0.0000000000000000000, 0.0000000000000000000, -4.000000000000000000 ) ) ;
#89 =( NAMED_UNIT ( * ) SI_UNIT ( $, .STERADIAN. ) SOLID_ANGLE_UNIT ( ) );
#90 = CIRCLE ( 'NONE', #99, 20.00000000000000000 ) ;
#91 = CALENDAR_DATE ( 2017, 31, 1 ) ;
#92 = ADVANCED_BREP_SHAPE_REPRESENTATION ( 'Web Model 47522', ( #70, #16 ), #11 ) ;
#93 = CALENDAR_DATE ( 2017, 31, 1 ) ;
#94 = DATE_AND_TIME ( #41, #158 ) ;
#95 = EDGE_CURVE ( 'NONE', #43, #1, #116, .T. ) ;
#96 = DIRECTION ( 'NONE',  ( 0.0000000000000000000, 0.0000000000000000000, 1.000000000000000000 ) ) ;
#97 = DATE_AND_TIME ( #161, #130 ) ;
#98 = PERSON_AND_ORGANIZATION_ROLE ( 'design_owner' ) ;
#99 = AXIS2_PLACEMENT_3D ( 'NONE', #165, #96, #31 ) ;
#100 =( NAMED_UNIT ( * ) PLANE_ANGLE_UNIT ( ) SI_UNIT ( $, .RADIAN. ) );
#101 = LOCAL_TIME ( 10, 20, 49.00000000000000000, #74 ) ;
#102 = LINE ( 'NONE', #133, #59 ) ;
#103 = EDGE_CURVE ( 'NONE', #73, #63, #80, .T. ) ;
#104 = PERSON_AND_ORGANIZATION ( #166, #135 ) ;
#105 = ORIENTED_EDGE ( 'NONE', *, *, #62, .F. ) ;
#106 = VECTOR ( 'NONE', #159, 1000.000000000000000 ) ;
#107 = AXIS2_PLACEMENT_3D ( 'NONE', #23, #72, #64 ) ;
#108 = APPROVAL ( #45, 'UNSPECIFIED' ) ;
#109 = PERSON_AND_ORGANIZATION_ROLE ( 'classification_officer' ) ;
#110 = APPROVAL_PERSON_ORGANIZATION ( #25, #108, #67 ) ;
#111 = CARTESIAN_POINT ( 'NONE',  ( 20.00000000000000000, 0.0000000000000000000, 0.0000000000000000000 ) ) ;
#112 =( LENGTH_UNIT ( ) NAMED_UNIT ( * ) SI_UNIT ( .MILLI., .METRE. ) );
#113 = CARTESIAN_POINT ( 'NONE',  ( 0.0000000000000000000, 0.0000000000000000000, -4.000000000000000000 ) ) ;
#114 = DATE_TIME_ROLE ( 'classification_date' ) ;
#115 = APPROVAL_ROLE ( '' ) ;
#116 = CIRCLE ( 'NONE', #60, 20.00000000000000000 ) ;
#117 = AXIS2_PLACEMENT_3D ( 'NONE', #143, #86, #65 ) ;
#118 = FACE_OUTER_BOUND ( 'NONE', #5, .T. ) ;
#119 = PERSON_AND_ORGANIZATION ( #166, #135 ) ;
#120 = COORDINATED_UNIVERSAL_TIME_OFFSET ( 5, 0, .BEHIND. ) ;
#121 = APPLICATION_CONTEXT ( 'configuration controlled 3d designs of mechanical parts and assemblies' ) ;
#122 = APPLICATION_CONTEXT ( 'configuration controlled 3d designs of mechanical parts and assemblies' ) ;
#123 = SECURITY_CLASSIFICATION_LEVEL ( 'unclassified' ) ;
#124 = PRODUCT_DEFINITION_SHAPE ( 'NONE', 'NONE',  #75 ) ;
#125 = CALENDAR_DATE ( 2017, 31, 1 ) ;
#126 = AXIS2_PLACEMENT_3D ( 'NONE', #113, #83, #156 ) ;
#127 = EDGE_CURVE ( 'NONE', #63, #43, #76, .T. ) ;
#128 = PLANE ( 'NONE',  #117 ) ;
#129 = DATE_TIME_ROLE ( 'creation_date' ) ;
#130 = LOCAL_TIME ( 10, 20, 49.00000000000000000, #66 ) ;
#131 = CARTESIAN_POINT ( 'NONE',  ( 0.0000000000000000000, 0.0000000000000000000, 0.0000000000000000000 ) ) ;
#132 = APPROVAL ( #49, 'UNSPECIFIED' ) ;
#133 = CARTESIAN_POINT ( 'NONE',  ( 20.00000000000000000, 0.0000000000000000000, -4.000000000000000000 ) ) ;
#134 = ORIENTED_EDGE ( 'NONE', *, *, #95, .T. ) ;
#135 = ORGANIZATION ( 'UNSPECIFIED', 'UNSPECIFIED', '' ) ;
#136 = CLOSED_SHELL ( 'NONE', ( #163, #29, #82, #61 ) ) ;
#137 = ORIENTED_EDGE ( 'NONE', *, *, #127, .F. ) ;
#138 = CC_DESIGN_DATE_AND_TIME_ASSIGNMENT ( #142, #114, ( #174 ) ) ;
#139 = CIRCLE ( 'NONE', #171, 20.00000000000000000 ) ;
#140 = CC_DESIGN_APPROVAL ( #132, ( #75 ) ) ;
#141 = APPROVAL_DATE_TIME ( #7, #81 ) ;
#142 = DATE_AND_TIME ( #91, #53 ) ;
#143 = CARTESIAN_POINT ( 'NONE',  ( 0.0000000000000000000, 0.0000000000000000000, 0.0000000000000000000 ) ) ;
#144 = ORIENTED_EDGE ( 'NONE', *, *, #103, .T. ) ;
#145 = PERSON_AND_ORGANIZATION_ROLE ( 'creator' ) ;
#146 = PERSON_AND_ORGANIZATION ( #166, #135 ) ;
#147 = DATE_AND_TIME ( #125, #14 ) ;
#148 = FACE_OUTER_BOUND ( 'NONE', #168, .T. ) ;
#149 = CC_DESIGN_PERSON_AND_ORGANIZATION_ASSIGNMENT ( #104, #145, ( #75 ) ) ;
#150 = PERSON_AND_ORGANIZATION ( #166, #135 ) ;
#151 = CC_DESIGN_DATE_AND_TIME_ASSIGNMENT ( #94, #129, ( #75 ) ) ;
#152 = FACE_OUTER_BOUND ( 'NONE', #175, .T. ) ;
#153 = PLANE ( 'NONE',  #126 ) ;
#154 = ORIENTED_EDGE ( 'NONE', *, *, #26, .T. ) ;
#155 = DIRECTION ( 'NONE',  ( 0.0000000000000000000, 0.0000000000000000000, 1.000000000000000000 ) ) ;
#156 = DIRECTION ( 'NONE',  ( 1.000000000000000000, 0.0000000000000000000, -0.0000000000000000000 ) ) ;
#157 = APPROVAL_STATUS ( 'not_yet_approved' ) ;
#158 = LOCAL_TIME ( 10, 20, 49.00000000000000000, #160 ) ;
#159 = DIRECTION ( 'NONE',  ( 0.0000000000000000000, 0.0000000000000000000, 1.000000000000000000 ) ) ;
#160 = COORDINATED_UNIVERSAL_TIME_OFFSET ( 5, 0, .BEHIND. ) ;
#161 = CALENDAR_DATE ( 2017, 31, 1 ) ;
#162 = CYLINDRICAL_SURFACE ( 'NONE', #77, 20.00000000000000000 ) ;
#163 = ADVANCED_FACE ( 'NONE', ( #148 ), #162, .T. ) ;
#164 = ORIENTED_EDGE ( 'NONE', *, *, #95, .F. ) ;
#165 = CARTESIAN_POINT ( 'NONE',  ( 0.0000000000000000000, 0.0000000000000000000, 0.0000000000000000000 ) ) ;
#166 = PERSON ( 'UNSPECIFIED', 'UNSPECIFIED', 'UNSPECIFIED', ('UNSPECIFIED'), ('UNSPECIFIED'), ('UNSPECIFIED') ) ;
#167 = CARTESIAN_POINT ( 'NONE',  ( -20.00000000000000000, 2.449293598294706500E-015, -4.000000000000000000 ) ) ;
#168 = EDGE_LOOP ( 'NONE', ( #144, #4, #105, #24 ) ) ;
#169 = PERSON_AND_ORGANIZATION_ROLE ( 'creator' ) ;
#170 = DIRECTION ( 'NONE',  ( 0.0000000000000000000, 0.0000000000000000000, 1.000000000000000000 ) ) ;
#171 = AXIS2_PLACEMENT_3D ( 'NONE', #88, #170, #44 ) ;
#172 = DIRECTION ( 'NONE',  ( 0.0000000000000000000, 0.0000000000000000000, 1.000000000000000000 ) ) ;
#173 = ORIENTED_EDGE ( 'NONE', *, *, #62, .T. ) ;
#174 = SECURITY_CLASSIFICATION ( '', '', #123 ) ;
#175 = EDGE_LOOP ( 'NONE', ( #173, #134 ) ) ;
ENDSEC;
END-ISO-10303-21;
