ISO-10303-21;
HEADER;
FILE_DESCRIPTION (( 'STEP AP203' ),
    '1' );
FILE_NAME ('step_35957.step',
    '2017-05-22T20:26:49',
    ( '' ),
    ( '' ),
    'SwSTEP 2.0',
    'SolidWorks 2016',
    '' );
FILE_SCHEMA (( 'CONFIG_CONTROL_DESIGN' ));
ENDSEC;

DATA;
#1 = DIRECTION ( 'NONE',  ( 0.0000000000000000000, -0.0000000000000000000, 1.000000000000000000 ) ) ;
#2 = ORIENTED_EDGE ( 'NONE', *, *, #80, .T. ) ;
#3 = APPROVAL_DATE_TIME ( #5, #50 ) ;
#4 = DIRECTION ( 'NONE',  ( 0.0000000000000000000, -1.000000000000000000, 0.0000000000000000000 ) ) ;
#5 = DATE_AND_TIME ( #6, #9 ) ;
#6 = CALENDAR_DATE ( 2017, 22, 5 ) ;
#7 = PRODUCT ( 'step_35957', 'step_35957', '', ( #222 ) ) ;
#8 = CARTESIAN_POINT ( 'NONE',  ( -37.50000000000000700, 37.49999999999999300, 1.000000000000000000 ) ) ;
#9 = LOCAL_TIME ( 13, 26, 49.00000000000000000, #10 ) ;
#10 = COORDINATED_UNIVERSAL_TIME_OFFSET ( 7, 0, .BEHIND. ) ;
#11 = APPROVAL_PERSON_ORGANIZATION ( #12, #50, #136 ) ;
#12 = PERSON_AND_ORGANIZATION ( #216, #129 ) ;
#13 =( NAMED_UNIT ( * ) PLANE_ANGLE_UNIT ( ) SI_UNIT ( $, .RADIAN. ) );
#14 = DIRECTION ( 'NONE',  ( -1.000000000000000000, -0.0000000000000000000, -0.0000000000000000000 ) ) ;
#15 = DATE_AND_TIME ( #16, #17 ) ;
#16 = CALENDAR_DATE ( 2017, 22, 5 ) ;
#17 = LOCAL_TIME ( 13, 26, 49.00000000000000000, #19 ) ;
#18 = ADVANCED_FACE ( 'NONE', ( #202 ), #51, .F. ) ;
#19 = COORDINATED_UNIVERSAL_TIME_OFFSET ( 7, 0, .BEHIND. ) ;
#20 = PERSON_AND_ORGANIZATION ( #216, #129 ) ;
#21 = PERSON_AND_ORGANIZATION ( #216, #129 ) ;
#22 = PERSON_AND_ORGANIZATION ( #216, #129 ) ;
#23 = APPROVAL_DATE_TIME ( #25, #112 ) ;
#24 = DIRECTION ( 'NONE',  ( -9.251858538542970300E-017, 1.000000000000000000, -0.0000000000000000000 ) ) ;
#25 = DATE_AND_TIME ( #26, #29 ) ;
#26 = CALENDAR_DATE ( 2017, 22, 5 ) ;
#27 = CARTESIAN_POINT ( 'NONE',  ( 37.50000000000000000, 37.49999999999999300, 1.000000000000000000 ) ) ;
#28 = DIRECTION ( 'NONE',  ( -9.251858538542970300E-017, 1.000000000000000000, -0.0000000000000000000 ) ) ;
#29 = LOCAL_TIME ( 13, 26, 49.00000000000000000, #30 ) ;
#30 = COORDINATED_UNIVERSAL_TIME_OFFSET ( 7, 0, .BEHIND. ) ;
#31 = VERTEX_POINT ( 'NONE', #35 ) ;
#32 = APPROVAL_PERSON_ORGANIZATION ( #34, #112, #82 ) ;
#33 = CARTESIAN_POINT ( 'NONE',  ( 37.50000000000000700, -37.50000000000001400, 1.000000000000000000 ) ) ;
#34 = PERSON_AND_ORGANIZATION ( #216, #129 ) ;
#35 = CARTESIAN_POINT ( 'NONE',  ( -37.49999999999999300, -37.50000000000001400, 1.000000000000000000 ) ) ;
#36 = CARTESIAN_POINT ( 'NONE',  ( 37.50000000000000700, -37.50000000000001400, 0.0000000000000000000 ) ) ;
#37 = DATE_AND_TIME ( #43, #38 ) ;
#38 = LOCAL_TIME ( 13, 26, 49.00000000000000000, #231 ) ;
#39 = APPROVAL_DATE_TIME ( #152, #123 ) ;
#40 = PRODUCT_RELATED_PRODUCT_CATEGORY ( 'detail', '', ( #7 ) ) ;
#41 = VECTOR ( 'NONE', #28, 1000.000000000000000 ) ;
#42 = LINE ( 'NONE', #126, #41 ) ;
#43 = CALENDAR_DATE ( 2017, 22, 5 ) ;
#44 = CC_DESIGN_SECURITY_CLASSIFICATION ( #83, ( #173 ) ) ;
#45 = CARTESIAN_POINT ( 'NONE',  ( 37.50000000000000000, 37.49999999999999300, 1.000000000000000000 ) ) ;
#46 = CC_DESIGN_APPROVAL ( #50, ( #83 ) ) ;
#47 = CARTESIAN_POINT ( 'NONE',  ( 0.0000000000000000000, 0.0000000000000000000, 0.0000000000000000000 ) ) ;
#48 = PLANE ( 'NONE',  #150 ) ;
#49 = FACE_OUTER_BOUND ( 'NONE', #236, .T. ) ;
#50 = APPROVAL ( #139, 'UNSPECIFIED' ) ;
#51 = PLANE ( 'NONE',  #118 ) ;
#52 = DIRECTION ( 'NONE',  ( 9.251858538542970300E-017, -1.000000000000000000, 0.0000000000000000000 ) ) ;
#53 = DESIGN_CONTEXT ( 'detailed design', #217, 'design' ) ;
#54 = CC_DESIGN_DATE_AND_TIME_ASSIGNMENT ( #15, #149, ( #83 ) ) ;
#55 =( NAMED_UNIT ( * ) SI_UNIT ( $, .STERADIAN. ) SOLID_ANGLE_UNIT ( ) );
#56 = DIRECTION ( 'NONE',  ( 0.0000000000000000000, 1.000000000000000000, 0.0000000000000000000 ) ) ;
#57 = CC_DESIGN_PERSON_AND_ORGANIZATION_ASSIGNMENT ( #20, #156, ( #83 ) ) ;
#58 = CARTESIAN_POINT ( 'NONE',  ( -37.49999999999999300, -37.50000000000001400, 1.000000000000000000 ) ) ;
#59 = CARTESIAN_POINT ( 'NONE',  ( -37.50000000000000700, 37.49999999999999300, 1.000000000000000000 ) ) ;
#60 = APPLICATION_CONTEXT ( 'configuration controlled 3d designs of mechanical parts and assemblies' ) ;
#61 = EDGE_CURVE ( 'NONE', #213, #31, #92, .T. ) ;
#62 = DATE_TIME_ROLE ( 'creation_date' ) ;
#63 = DIRECTION ( 'NONE',  ( 0.0000000000000000000, -0.0000000000000000000, -1.000000000000000000 ) ) ;
#64 = ORIENTED_EDGE ( 'NONE', *, *, #69, .F. ) ;
#65 = ORIENTED_EDGE ( 'NONE', *, *, #69, .T. ) ;
#66 = CARTESIAN_POINT ( 'NONE',  ( -37.50000000000000700, 37.49999999999999300, 1.000000000000000000 ) ) ;
#67 = DIRECTION ( 'NONE',  ( -0.0000000000000000000, -0.0000000000000000000, -1.000000000000000000 ) ) ;
#68 = ORIENTED_EDGE ( 'NONE', *, *, #103, .F. ) ;
#69 = EDGE_CURVE ( 'NONE', #201, #153, #42, .T. ) ;
#70 = PLANE ( 'NONE',  #163 ) ;
#71 = CARTESIAN_POINT ( 'NONE',  ( -37.50000000000000700, 37.49999999999999300, 0.0000000000000000000 ) ) ;
#72 = PERSON_AND_ORGANIZATION_ROLE ( 'creator' ) ;
#73 = VECTOR ( 'NONE', #89, 1000.000000000000000 ) ;
#74 = CARTESIAN_POINT ( 'NONE',  ( -37.49999999999999300, -37.50000000000001400, 0.0000000000000000000 ) ) ;
#75 = DIRECTION ( 'NONE',  ( 1.000000000000000000, 1.850371707708594100E-016, -0.0000000000000000000 ) ) ;
#76 = EDGE_CURVE ( 'NONE', #219, #183, #88, .T. ) ;
#77 = CARTESIAN_POINT ( 'NONE',  ( -37.49999999999999300, -37.50000000000001400, 0.0000000000000000000 ) ) ;
#78 = ADVANCED_FACE ( 'NONE', ( #49 ), #189, .F. ) ;
#79 = DIRECTION ( 'NONE',  ( 1.000000000000000000, 0.0000000000000000000, 0.0000000000000000000 ) ) ;
#80 = EDGE_CURVE ( 'NONE', #201, #219, #121, .T. ) ;
#81 = APPLICATION_PROTOCOL_DEFINITION ( 'international standard', 'config_control_design', 1994, #60 ) ;
#82 = APPROVAL_ROLE ( '' ) ;
#83 = SECURITY_CLASSIFICATION ( '', '', #160 ) ;
#84 = ADVANCED_FACE ( 'NONE', ( #193 ), #48, .T. ) ;
#85 = MANIFOLD_SOLID_BREP ( 'Boss-Extrude1', #148 ) ;
#86 = CARTESIAN_POINT ( 'NONE',  ( 0.0000000000000000000, 0.0000000000000000000, 1.000000000000000000 ) ) ;
#87 = DIRECTION ( 'NONE',  ( -0.0000000000000000000, 0.0000000000000000000, 1.000000000000000000 ) ) ;
#88 = LINE ( 'NONE', #133, #145 ) ;
#89 = DIRECTION ( 'NONE',  ( 1.000000000000000000, 0.0000000000000000000, 0.0000000000000000000 ) ) ;
#90 = CC_DESIGN_PERSON_AND_ORGANIZATION_ASSIGNMENT ( #21, #162, ( #173 ) ) ;
#91 = LINE ( 'NONE', #77, #102 ) ;
#92 = LINE ( 'NONE', #66, #117 ) ;
#93 = ORIENTED_EDGE ( 'NONE', *, *, #197, .T. ) ;
#94 = CC_DESIGN_PERSON_AND_ORGANIZATION_ASSIGNMENT ( #22, #164, ( #173 ) ) ;
#95 = CALENDAR_DATE ( 2017, 22, 5 ) ;
#96 = FACE_OUTER_BOUND ( 'NONE', #182, .T. ) ;
#97 = EDGE_LOOP ( 'NONE', ( #218, #142, #188, #168 ) ) ;
#98 = DIRECTION ( 'NONE',  ( -0.0000000000000000000, 0.0000000000000000000, 1.000000000000000000 ) ) ;
#99 = CC_DESIGN_APPROVAL ( #112, ( #173 ) ) ;
#100 = CARTESIAN_POINT ( 'NONE',  ( -37.50000000000000700, 37.49999999999999300, 0.0000000000000000000 ) ) ;
#101 = ADVANCED_FACE ( 'NONE', ( #96 ), #191, .F. ) ;
#102 = VECTOR ( 'NONE', #110, 1000.000000000000000 ) ;
#103 = EDGE_CURVE ( 'NONE', #200, #181, #141, .T. ) ;
#104 = LINE ( 'NONE', #8, #134 ) ;
#105 = DIRECTION ( 'NONE',  ( -0.0000000000000000000, -0.0000000000000000000, -1.000000000000000000 ) ) ;
#106 = LINE ( 'NONE', #58, #146 ) ;
#107 = CARTESIAN_POINT ( 'NONE',  ( 37.50000000000000000, 37.49999999999999300, 1.000000000000000000 ) ) ;
#108 = DIRECTION ( 'NONE',  ( 1.000000000000000000, 0.0000000000000000000, 0.0000000000000000000 ) ) ;
#109 = CARTESIAN_POINT ( 'NONE',  ( -37.50000000000000700, 37.49999999999999300, 1.000000000000000000 ) ) ;
#110 = DIRECTION ( 'NONE',  ( 1.000000000000000000, 0.0000000000000000000, 0.0000000000000000000 ) ) ;
#111 = LINE ( 'NONE', #177, #124 ) ;
#112 = APPROVAL ( #143, 'UNSPECIFIED' ) ;
#113 = APPROVAL_STATUS ( 'not_yet_approved' ) ;
#114 = CARTESIAN_POINT ( 'NONE',  ( 0.0000000000000000000, 0.0000000000000000000, 0.0000000000000000000 ) ) ;
#115 = CC_DESIGN_APPROVAL ( #123, ( #185 ) ) ;
#116 = VECTOR ( 'NONE', #212, 1000.000000000000000 ) ;
#117 = VECTOR ( 'NONE', #174, 1000.000000000000000 ) ;
#118 = AXIS2_PLACEMENT_3D ( 'NONE', #47, #87, #108 ) ;
#119 = ADVANCED_FACE ( 'NONE', ( #137 ), #70, .F. ) ;
#120 = SHAPE_DEFINITION_REPRESENTATION ( #159, #227 ) ;
#121 = LINE ( 'NONE', #210, #132 ) ;
#122 =( LENGTH_UNIT ( ) NAMED_UNIT ( * ) SI_UNIT ( .MILLI., .METRE. ) );
#123 = APPROVAL ( #113, 'UNSPECIFIED' ) ;
#124 = VECTOR ( 'NONE', #223, 1000.000000000000000 ) ;
#125 = APPLICATION_PROTOCOL_DEFINITION ( 'international standard', 'config_control_design', 1994, #217 ) ;
#126 = CARTESIAN_POINT ( 'NONE',  ( 37.50000000000000000, 37.49999999999999300, 1.000000000000000000 ) ) ;
#127 = DIRECTION ( 'NONE',  ( -1.850371707708594100E-016, 1.000000000000000000, 0.0000000000000000000 ) ) ;
#128 = LINE ( 'NONE', #165, #73 ) ;
#129 = ORGANIZATION ( 'UNSPECIFIED', 'UNSPECIFIED', '' ) ;
#130 = LINE ( 'NONE', #71, #169 ) ;
#131 = VECTOR ( 'NONE', #67, 1000.000000000000000 ) ;
#132 = VECTOR ( 'NONE', #204, 1000.000000000000000 ) ;
#133 = CARTESIAN_POINT ( 'NONE',  ( 37.50000000000000000, 37.49999999999999300, 0.0000000000000000000 ) ) ;
#134 = VECTOR ( 'NONE', #105, 1000.000000000000000 ) ;
#135 = EDGE_LOOP ( 'NONE', ( #175, #228, #65, #138 ) ) ;
#136 = APPROVAL_ROLE ( '' ) ;
#137 = FACE_OUTER_BOUND ( 'NONE', #97, .T. ) ;
#138 = ORIENTED_EDGE ( 'NONE', *, *, #234, .T. ) ;
#139 = APPROVAL_STATUS ( 'not_yet_approved' ) ;
#140 = PLANE ( 'NONE',  #230 ) ;
#141 = LINE ( 'NONE', #100, #116 ) ;
#142 = ORIENTED_EDGE ( 'NONE', *, *, #197, .F. ) ;
#143 = APPROVAL_STATUS ( 'not_yet_approved' ) ;
#144 = FACE_OUTER_BOUND ( 'NONE', #206, .T. ) ;
#145 = VECTOR ( 'NONE', #24, 1000.000000000000000 ) ;
#146 = VECTOR ( 'NONE', #203, 1000.000000000000000 ) ;
#147 = CC_DESIGN_PERSON_AND_ORGANIZATION_ASSIGNMENT ( #151, #220, ( #7 ) ) ;
#148 = CLOSED_SHELL ( 'NONE', ( #78, #101, #192, #119, #84, #18 ) ) ;
#149 = DATE_TIME_ROLE ( 'classification_date' ) ;
#150 = AXIS2_PLACEMENT_3D ( 'NONE', #86, #98, #79 ) ;
#151 = PERSON_AND_ORGANIZATION ( #216, #129 ) ;
#152 = DATE_AND_TIME ( #95, #161 ) ;
#153 = VERTEX_POINT ( 'NONE', #107 ) ;
#154 = APPROVAL_PERSON_ORGANIZATION ( #178, #123, #179 ) ;
#155 = AXIS2_PLACEMENT_3D ( 'NONE', #109, #75, #127 ) ;
#156 = PERSON_AND_ORGANIZATION_ROLE ( 'classification_officer' ) ;
#157 = COORDINATED_UNIVERSAL_TIME_OFFSET ( 7, 0, .BEHIND. ) ;
#158 = UNCERTAINTY_MEASURE_WITH_UNIT (LENGTH_MEASURE( 1.000000000000000100E-005 ), #122, 'distance_accuracy_value', 'NONE');
#159 = PRODUCT_DEFINITION_SHAPE ( 'NONE', 'NONE',  #185 ) ;
#160 = SECURITY_CLASSIFICATION_LEVEL ( 'unclassified' ) ;
#161 = LOCAL_TIME ( 13, 26, 49.00000000000000000, #157 ) ;
#162 = PERSON_AND_ORGANIZATION_ROLE ( 'design_supplier' ) ;
#163 = AXIS2_PLACEMENT_3D ( 'NONE', #172, #4, #63 ) ;
#164 = PERSON_AND_ORGANIZATION_ROLE ( 'creator' ) ;
#165 = CARTESIAN_POINT ( 'NONE',  ( -37.49999999999999300, -37.50000000000001400, 1.000000000000000000 ) ) ;
#166 = CARTESIAN_POINT ( 'NONE',  ( -37.50000000000000700, 37.49999999999999300, 0.0000000000000000000 ) ) ;
#167 = CC_DESIGN_DATE_AND_TIME_ASSIGNMENT ( #37, #62, ( #185 ) ) ;
#168 = ORIENTED_EDGE ( 'NONE', *, *, #232, .T. ) ;
#169 = VECTOR ( 'NONE', #14, 1000.000000000000000 ) ;
#170 = ORIENTED_EDGE ( 'NONE', *, *, #232, .F. ) ;
#171 = CC_DESIGN_PERSON_AND_ORGANIZATION_ASSIGNMENT ( #184, #72, ( #185 ) ) ;
#172 = CARTESIAN_POINT ( 'NONE',  ( -37.50000000000000700, 37.49999999999999300, 1.000000000000000000 ) ) ;
#173 = PRODUCT_DEFINITION_FORMATION_WITH_SPECIFIED_SOURCE ( 'ANY', '', #7, .NOT_KNOWN. ) ;
#174 = DIRECTION ( 'NONE',  ( 1.850371707708594100E-016, -1.000000000000000000, 0.0000000000000000000 ) ) ;
#175 = ORIENTED_EDGE ( 'NONE', *, *, #61, .T. ) ;
#176 = CARTESIAN_POINT ( 'NONE',  ( 37.50000000000000000, 37.49999999999999300, 0.0000000000000000000 ) ) ;
#177 = CARTESIAN_POINT ( 'NONE',  ( -37.50000000000000700, 37.49999999999999300, 1.000000000000000000 ) ) ;
#178 = PERSON_AND_ORGANIZATION ( #216, #129 ) ;
#179 = APPROVAL_ROLE ( '' ) ;
#180 = AXIS2_PLACEMENT_3D ( 'NONE', #114, #226, #224 ) ;
#181 = VERTEX_POINT ( 'NONE', #74 ) ;
#182 = EDGE_LOOP ( 'NONE', ( #235, #198, #196, #211 ) ) ;
#183 = VERTEX_POINT ( 'NONE', #176 ) ;
#184 = PERSON_AND_ORGANIZATION ( #216, #129 ) ;
#185 = PRODUCT_DEFINITION ( 'UNKNOWN', '', #173, #53 ) ;
#186 = ORIENTED_EDGE ( 'NONE', *, *, #215, .F. ) ;
#187 = CARTESIAN_POINT ( 'NONE',  ( -37.49999999999999300, -37.50000000000001400, 1.000000000000000000 ) ) ;
#188 = ORIENTED_EDGE ( 'NONE', *, *, #234, .F. ) ;
#189 = PLANE ( 'NONE',  #155 ) ;
#190 = ORIENTED_EDGE ( 'NONE', *, *, #76, .F. ) ;
#191 = PLANE ( 'NONE',  #221 ) ;
#192 = ADVANCED_FACE ( 'NONE', ( #144 ), #140, .F. ) ;
#193 = FACE_OUTER_BOUND ( 'NONE', #135, .T. ) ;
#194 =( GEOMETRIC_REPRESENTATION_CONTEXT ( 3 ) GLOBAL_UNCERTAINTY_ASSIGNED_CONTEXT ( ( #158 ) ) GLOBAL_UNIT_ASSIGNED_CONTEXT ( ( #122, #13, #55 ) ) REPRESENTATION_CONTEXT ( 'NONE', 'WORKASPACE' ) );
#195 = ORIENTED_EDGE ( 'NONE', *, *, #61, .F. ) ;
#196 = ORIENTED_EDGE ( 'NONE', *, *, #237, .F. ) ;
#197 = EDGE_CURVE ( 'NONE', #213, #200, #104, .T. ) ;
#198 = ORIENTED_EDGE ( 'NONE', *, *, #80, .F. ) ;
#199 = LINE ( 'NONE', #27, #131 ) ;
#200 = VERTEX_POINT ( 'NONE', #166 ) ;
#201 = VERTEX_POINT ( 'NONE', #33 ) ;
#202 = FACE_OUTER_BOUND ( 'NONE', #209, .T. ) ;
#203 = DIRECTION ( 'NONE',  ( -0.0000000000000000000, -0.0000000000000000000, -1.000000000000000000 ) ) ;
#204 = DIRECTION ( 'NONE',  ( -0.0000000000000000000, -0.0000000000000000000, -1.000000000000000000 ) ) ;
#205 = ORIENTED_EDGE ( 'NONE', *, *, #103, .T. ) ;
#206 = EDGE_LOOP ( 'NONE', ( #207, #170, #64, #2 ) ) ;
#207 = ORIENTED_EDGE ( 'NONE', *, *, #76, .T. ) ;
#208 = EDGE_CURVE ( 'NONE', #31, #181, #106, .T. ) ;
#209 = EDGE_LOOP ( 'NONE', ( #68, #186, #190, #225 ) ) ;
#210 = CARTESIAN_POINT ( 'NONE',  ( 37.50000000000000700, -37.50000000000001400, 1.000000000000000000 ) ) ;
#211 = ORIENTED_EDGE ( 'NONE', *, *, #208, .T. ) ;
#212 = DIRECTION ( 'NONE',  ( 1.850371707708594100E-016, -1.000000000000000000, 0.0000000000000000000 ) ) ;
#213 = VERTEX_POINT ( 'NONE', #59 ) ;
#214 = ORIENTED_EDGE ( 'NONE', *, *, #208, .F. ) ;
#215 = EDGE_CURVE ( 'NONE', #183, #200, #130, .T. ) ;
#216 = PERSON ( 'UNSPECIFIED', 'UNSPECIFIED', 'UNSPECIFIED', ('UNSPECIFIED'), ('UNSPECIFIED'), ('UNSPECIFIED') ) ;
#217 = APPLICATION_CONTEXT ( 'configuration controlled 3d designs of mechanical parts and assemblies' ) ;
#218 = ORIENTED_EDGE ( 'NONE', *, *, #215, .T. ) ;
#219 = VERTEX_POINT ( 'NONE', #36 ) ;
#220 = PERSON_AND_ORGANIZATION_ROLE ( 'design_owner' ) ;
#221 = AXIS2_PLACEMENT_3D ( 'NONE', #187, #56, #1 ) ;
#222 = MECHANICAL_CONTEXT ( 'NONE', #60, 'mechanical' ) ;
#223 = DIRECTION ( 'NONE',  ( -1.000000000000000000, -0.0000000000000000000, -0.0000000000000000000 ) ) ;
#224 = DIRECTION ( 'NONE',  ( 1.000000000000000000, 0.0000000000000000000, 0.0000000000000000000 ) ) ;
#225 = ORIENTED_EDGE ( 'NONE', *, *, #233, .F. ) ;
#226 = DIRECTION ( 'NONE',  ( 0.0000000000000000000, 0.0000000000000000000, 1.000000000000000000 ) ) ;
#227 = ADVANCED_BREP_SHAPE_REPRESENTATION ( 'step_35957', ( #85, #180 ), #194 ) ;
#228 = ORIENTED_EDGE ( 'NONE', *, *, #237, .T. ) ;
#229 = DIRECTION ( 'NONE',  ( -1.000000000000000000, -9.251858538542970300E-017, 0.0000000000000000000 ) ) ;
#230 = AXIS2_PLACEMENT_3D ( 'NONE', #45, #229, #52 ) ;
#231 = COORDINATED_UNIVERSAL_TIME_OFFSET ( 7, 0, .BEHIND. ) ;
#232 = EDGE_CURVE ( 'NONE', #153, #183, #199, .T. ) ;
#233 = EDGE_CURVE ( 'NONE', #181, #219, #91, .T. ) ;
#234 = EDGE_CURVE ( 'NONE', #153, #213, #111, .T. ) ;
#235 = ORIENTED_EDGE ( 'NONE', *, *, #233, .T. ) ;
#236 = EDGE_LOOP ( 'NONE', ( #205, #214, #195, #93 ) ) ;
#237 = EDGE_CURVE ( 'NONE', #31, #201, #128, .T. ) ;
ENDSEC;
END-ISO-10303-21;
