ISO-10303-21;
HEADER;
FILE_DESCRIPTION (( 'STEP AP203' ),
    '1' );
FILE_NAME ('Web Model 83367_83368.step',
    '2017-04-26T17:47:04',
    ( '' ),
    ( '' ),
    'SwSTEP 2.0',
    'SolidWorks 2016',
    '' );
FILE_SCHEMA (( 'CONFIG_CONTROL_DESIGN' ));
ENDSEC;

DATA;
#1 = CC_DESIGN_PERSON_AND_ORGANIZATION_ASSIGNMENT ( #102, #118, ( #233 ) ) ;
#2 = VECTOR ( 'NONE', #85, 1000.000000000000000 ) ;
#3 = ADVANCED_FACE ( 'NONE', ( #198 ), #75, .T. ) ;
#4 = COORDINATED_UNIVERSAL_TIME_OFFSET ( 5, 0, .BEHIND. ) ;
#5 = PERSON ( 'UNSPECIFIED', 'UNSPECIFIED', 'UNSPECIFIED', ('UNSPECIFIED'), ('UNSPECIFIED'), ('UNSPECIFIED') ) ;
#7 = APPLICATION_PROTOCOL_DEFINITION ( 'international standard', 'config_control_design', 1994, #176 ) ;
#6 = PRODUCT_DEFINITION ( 'UNKNOWN', '', #224, #45 ) ;
#8 = PERSON_AND_ORGANIZATION_ROLE ( 'design_owner' ) ;
#9 = LINE ( 'NONE', #108, #100 ) ;
#10 = APPROVAL_STATUS ( 'not_yet_approved' ) ;
#11 = CARTESIAN_POINT ( 'NONE',  ( -100.0000000000000000, 99.99999999999997200, 0.0000000000000000000 ) ) ;
#12 = EDGE_CURVE ( 'NONE', #87, #125, #165, .T. ) ;
#13 = PERSON_AND_ORGANIZATION ( #5, #219 ) ;
#14 = AXIS2_PLACEMENT_3D ( 'NONE', #173, #158, #193 ) ;
#15 = CC_DESIGN_DATE_AND_TIME_ASSIGNMENT ( #217, #119, ( #233 ) ) ;
#16 = LINE ( 'NONE', #80, #54 ) ;
#17 = EDGE_CURVE ( 'NONE', #37, #231, #67, .T. ) ;
#18 = CALENDAR_DATE ( 2017, 26, 4 ) ;
#19 = CALENDAR_DATE ( 2017, 26, 4 ) ;
#20 = VECTOR ( 'NONE', #164, 1000.000000000000000 ) ;
#21 = LOCAL_TIME ( 13, 47, 4.000000000000000000, #179 ) ;
#22 = LOCAL_TIME ( 13, 47, 4.000000000000000000, #4 ) ;
#23 = EDGE_CURVE ( 'NONE', #37, #95, #145, .T. ) ;
#24 = DIRECTION ( 'NONE',  ( -1.000000000000000000, -1.387778780781445700E-016, 0.0000000000000000000 ) ) ;
#25 = DIRECTION ( 'NONE',  ( 6.938893903907228400E-017, -1.000000000000000000, -0.0000000000000000000 ) ) ;
#26 = ORIENTED_EDGE ( 'NONE', *, *, #23, .F. ) ;
#27 = SECURITY_CLASSIFICATION_LEVEL ( 'unclassified' ) ;
#28 = CARTESIAN_POINT ( 'NONE',  ( 100.0000000000000000, -100.0000000000000000, 1.100000000000000100 ) ) ;
#29 = APPROVAL ( #10, 'UNSPECIFIED' ) ;
#30 = DATE_AND_TIME ( #82, #22 ) ;
#31 = APPROVAL_ROLE ( '' ) ;
#32 = DATE_TIME_ROLE ( 'creation_date' ) ;
#33 = CARTESIAN_POINT ( 'NONE',  ( 0.0000000000000000000, 0.0000000000000000000, 1.100000000000000100 ) ) ;
#34 = VECTOR ( 'NONE', #25, 1000.000000000000000 ) ;
#35 = AXIS2_PLACEMENT_3D ( 'NONE', #147, #64, #197 ) ;
#36 = ORIENTED_EDGE ( 'NONE', *, *, #72, .T. ) ;
#37 = VERTEX_POINT ( 'NONE', #68 ) ;
#38 = MECHANICAL_CONTEXT ( 'NONE', #126, 'mechanical' ) ;
#39 = DIRECTION ( 'NONE',  ( 1.000000000000000000, 0.0000000000000000000, -0.0000000000000000000 ) ) ;
#40 = DIRECTION ( 'NONE',  ( -0.0000000000000000000, -0.0000000000000000000, -1.000000000000000000 ) ) ;
#41 = CALENDAR_DATE ( 2017, 26, 4 ) ;
#43 = AXIS2_PLACEMENT_3D ( 'NONE', #33, #49, #203 ) ;
#42 = APPROVAL_STATUS ( 'not_yet_approved' ) ;
#44 = UNCERTAINTY_MEASURE_WITH_UNIT (LENGTH_MEASURE( 1.000000000000000100E-005 ), #107, 'distance_accuracy_value', 'NONE');
#45 = DESIGN_CONTEXT ( 'detailed design', #176, 'design' ) ;
#46 = AXIS2_PLACEMENT_3D ( 'NONE', #235, #121, #84 ) ;
#47 = VERTEX_POINT ( 'NONE', #92 ) ;
#48 = APPROVAL_PERSON_ORGANIZATION ( #50, #89, #148 ) ;
#49 = DIRECTION ( 'NONE',  ( 0.0000000000000000000, 0.0000000000000000000, 1.000000000000000000 ) ) ;
#50 = PERSON_AND_ORGANIZATION ( #5, #219 ) ;
#51 = EDGE_CURVE ( 'NONE', #95, #200, #9, .T. ) ;
#52 = APPROVAL_DATE_TIME ( #30, #62 ) ;
#53 = ORIENTED_EDGE ( 'NONE', *, *, #51, .F. ) ;
#54 = VECTOR ( 'NONE', #132, 1000.000000000000000 ) ;
#55 = PLANE ( 'NONE',  #146 ) ;
#56 = PLANE ( 'NONE',  #196 ) ;
#57 = PERSON_AND_ORGANIZATION ( #5, #219 ) ;
#58 = CARTESIAN_POINT ( 'NONE',  ( 100.0000000000000000, 100.0000000000000000, 1.100000000000000100 ) ) ;
#59 = PRODUCT_RELATED_PRODUCT_CATEGORY ( 'detail', '', ( #229 ) ) ;
#60 = APPROVAL_DATE_TIME ( #117, #89 ) ;
#61 = VECTOR ( 'NONE', #77, 1000.000000000000000 ) ;
#62 = APPROVAL ( #163, 'UNSPECIFIED' ) ;
#63 = ADVANCED_FACE ( 'NONE', ( #171 ), #167, .F. ) ;
#64 = DIRECTION ( 'NONE',  ( 1.000000000000000000, 6.938893903907228400E-017, -0.0000000000000000000 ) ) ;
#65 = DATE_AND_TIME ( #41, #213 ) ;
#66 =( NAMED_UNIT ( * ) SI_UNIT ( $, .STERADIAN. ) SOLID_ANGLE_UNIT ( ) );
#67 = LINE ( 'NONE', #139, #129 ) ;
#68 = CARTESIAN_POINT ( 'NONE',  ( -100.0000000000000000, 99.99999999999997200, 1.100000000000000100 ) ) ;
#69 = VECTOR ( 'NONE', #136, 1000.000000000000000 ) ;
#70 = EDGE_CURVE ( 'NONE', #200, #125, #160, .T. ) ;
#71 = PLANE ( 'NONE',  #46 ) ;
#72 = EDGE_CURVE ( 'NONE', #95, #87, #16, .T. ) ;
#73 = APPROVAL_DATE_TIME ( #65, #29 ) ;
#74 = EDGE_LOOP ( 'NONE', ( #88, #94, #237, #156 ) ) ;
#75 = PLANE ( 'NONE',  #43 ) ;
#76 = ADVANCED_BREP_SHAPE_REPRESENTATION ( 'Web Model 83367_83368', ( #221, #14 ), #128 ) ;
#77 = DIRECTION ( 'NONE',  ( -1.000000000000000000, -1.387778780781445700E-016, 0.0000000000000000000 ) ) ;
#78 = ORIENTED_EDGE ( 'NONE', *, *, #12, .F. ) ;
#79 = VECTOR ( 'NONE', #24, 1000.000000000000000 ) ;
#80 = CARTESIAN_POINT ( 'NONE',  ( 100.0000000000000000, -100.0000000000000000, 1.100000000000000100 ) ) ;
#81 = ORIENTED_EDGE ( 'NONE', *, *, #97, .F. ) ;
#82 = CALENDAR_DATE ( 2017, 26, 4 ) ;
#83 = FACE_OUTER_BOUND ( 'NONE', #170, .T. ) ;
#84 = DIRECTION ( 'NONE',  ( 1.000000000000000000, 1.387778780781445700E-016, 0.0000000000000000000 ) ) ;
#85 = DIRECTION ( 'NONE',  ( 1.000000000000000000, 1.387778780781445700E-016, -0.0000000000000000000 ) ) ;
#86 = ORIENTED_EDGE ( 'NONE', *, *, #17, .T. ) ;
#87 = VERTEX_POINT ( 'NONE', #169 ) ;
#88 = ORIENTED_EDGE ( 'NONE', *, *, #96, .T. ) ;
#89 = APPROVAL ( #42, 'UNSPECIFIED' ) ;
#90 = EDGE_LOOP ( 'NONE', ( #202, #53, #26, #86 ) ) ;
#91 =( NAMED_UNIT ( * ) PLANE_ANGLE_UNIT ( ) SI_UNIT ( $, .RADIAN. ) );
#92 = CARTESIAN_POINT ( 'NONE',  ( 100.0000000000000000, 100.0000000000000000, 0.0000000000000000000 ) ) ;
#93 = CARTESIAN_POINT ( 'NONE',  ( -99.99999999999998600, -100.0000000000000300, 1.100000000000000100 ) ) ;
#94 = ORIENTED_EDGE ( 'NONE', *, *, #112, .F. ) ;
#95 = VERTEX_POINT ( 'NONE', #93 ) ;
#96 = EDGE_CURVE ( 'NONE', #125, #47, #151, .T. ) ;
#97 = EDGE_CURVE ( 'NONE', #231, #200, #211, .T. ) ;
#98 = CARTESIAN_POINT ( 'NONE',  ( 100.0000000000000000, -100.0000000000000000, 0.0000000000000000000 ) ) ;
#99 = ORIENTED_EDGE ( 'NONE', *, *, #70, .T. ) ;
#100 = VECTOR ( 'NONE', #124, 1000.000000000000000 ) ;
#101 = LOCAL_TIME ( 13, 47, 4.000000000000000000, #104 ) ;
#102 = PERSON_AND_ORGANIZATION ( #5, #219 ) ;
#103 = CC_DESIGN_PERSON_AND_ORGANIZATION_ASSIGNMENT ( #57, #8, ( #229 ) ) ;
#104 = COORDINATED_UNIVERSAL_TIME_OFFSET ( 5, 0, .BEHIND. ) ;
#105 = DIRECTION ( 'NONE',  ( -0.0000000000000000000, -0.0000000000000000000, -1.000000000000000000 ) ) ;
#106 = COORDINATED_UNIVERSAL_TIME_OFFSET ( 5, 0, .BEHIND. ) ;
#107 =( LENGTH_UNIT ( ) NAMED_UNIT ( * ) SI_UNIT ( .MILLI., .METRE. ) );
#108 = CARTESIAN_POINT ( 'NONE',  ( -99.99999999999998600, -100.0000000000000300, 1.100000000000000100 ) ) ;
#109 = AXIS2_PLACEMENT_3D ( 'NONE', #149, #181, #115 ) ;
#110 = ORIENTED_EDGE ( 'NONE', *, *, #207, .T. ) ;
#111 = VECTOR ( 'NONE', #105, 1000.000000000000000 ) ;
#112 = EDGE_CURVE ( 'NONE', #205, #47, #215, .T. ) ;
#113 = CARTESIAN_POINT ( 'NONE',  ( 100.0000000000000000, -100.0000000000000000, 1.100000000000000100 ) ) ;
#114 = PERSON_AND_ORGANIZATION_ROLE ( 'creator' ) ;
#115 = DIRECTION ( 'NONE',  ( -1.000000000000000000, -1.387778780781445700E-016, 0.0000000000000000000 ) ) ;
#116 = CALENDAR_DATE ( 2017, 26, 4 ) ;
#117 = DATE_AND_TIME ( #116, #101 ) ;
#118 = PERSON_AND_ORGANIZATION_ROLE ( 'classification_officer' ) ;
#119 = DATE_TIME_ROLE ( 'classification_date' ) ;
#120 = ORIENTED_EDGE ( 'NONE', *, *, #72, .F. ) ;
#121 = DIRECTION ( 'NONE',  ( 1.387778780781445700E-016, -1.000000000000000000, 0.0000000000000000000 ) ) ;
#122 = FACE_OUTER_BOUND ( 'NONE', #74, .T. ) ;
#123 = CC_DESIGN_APPROVAL ( #29, ( #233 ) ) ;
#124 = DIRECTION ( 'NONE',  ( -0.0000000000000000000, -0.0000000000000000000, -1.000000000000000000 ) ) ;
#125 = VERTEX_POINT ( 'NONE', #98 ) ;
#126 = APPLICATION_CONTEXT ( 'configuration controlled 3d designs of mechanical parts and assemblies' ) ;
#127 = ORIENTED_EDGE ( 'NONE', *, *, #112, .T. ) ;
#128 =( GEOMETRIC_REPRESENTATION_CONTEXT ( 3 ) GLOBAL_UNCERTAINTY_ASSIGNED_CONTEXT ( ( #44 ) ) GLOBAL_UNIT_ASSIGNED_CONTEXT ( ( #107, #91, #66 ) ) REPRESENTATION_CONTEXT ( 'NONE', 'WORKASPACE' ) );
#129 = VECTOR ( 'NONE', #40, 1000.000000000000000 ) ;
#130 = EDGE_CURVE ( 'NONE', #205, #37, #220, .T. ) ;
#131 = CLOSED_SHELL ( 'NONE', ( #63, #236, #187, #161, #3, #133 ) ) ;
#132 = DIRECTION ( 'NONE',  ( 1.000000000000000000, 1.387778780781445700E-016, -0.0000000000000000000 ) ) ;
#133 = ADVANCED_FACE ( 'NONE', ( #134 ), #55, .F. ) ;
#134 = FACE_OUTER_BOUND ( 'NONE', #216, .T. ) ;
#135 = PRODUCT_DEFINITION_SHAPE ( 'NONE', 'NONE',  #6 ) ;
#136 = DIRECTION ( 'NONE',  ( 0.0000000000000000000, 1.000000000000000000, 0.0000000000000000000 ) ) ;
#137 = LOCAL_TIME ( 13, 47, 4.000000000000000000, #230 ) ;
#138 = EDGE_CURVE ( 'NONE', #47, #231, #175, .T. ) ;
#139 = CARTESIAN_POINT ( 'NONE',  ( -100.0000000000000000, 99.99999999999997200, 1.100000000000000100 ) ) ;
#140 = CARTESIAN_POINT ( 'NONE',  ( 100.0000000000000000, 100.0000000000000000, 1.100000000000000100 ) ) ;
#141 = ORIENTED_EDGE ( 'NONE', *, *, #70, .F. ) ;
#142 = CC_DESIGN_PERSON_AND_ORGANIZATION_ASSIGNMENT ( #222, #168, ( #224 ) ) ;
#143 = CARTESIAN_POINT ( 'NONE',  ( -99.99999999999998600, -100.0000000000000300, 0.0000000000000000000 ) ) ;
#144 = DIRECTION ( 'NONE',  ( -0.0000000000000000000, -0.0000000000000000000, -1.000000000000000000 ) ) ;
#145 = LINE ( 'NONE', #212, #34 ) ;
#146 = AXIS2_PLACEMENT_3D ( 'NONE', #177, #174, #39 ) ;
#147 = CARTESIAN_POINT ( 'NONE',  ( -99.99999999999998600, -100.0000000000000300, 1.100000000000000100 ) ) ;
#148 = APPROVAL_ROLE ( '' ) ;
#149 = CARTESIAN_POINT ( 'NONE',  ( 100.0000000000000000, -100.0000000000000000, 1.100000000000000100 ) ) ;
#150 = EDGE_LOOP ( 'NONE', ( #195, #226, #201, #127 ) ) ;
#151 = LINE ( 'NONE', #227, #20 ) ;
#152 = CARTESIAN_POINT ( 'NONE',  ( 100.0000000000000000, -100.0000000000000000, 1.100000000000000100 ) ) ;
#153 = CC_DESIGN_DATE_AND_TIME_ASSIGNMENT ( #186, #32, ( #6 ) ) ;
#154 = CARTESIAN_POINT ( 'NONE',  ( -99.99999999999998600, -100.0000000000000300, 0.0000000000000000000 ) ) ;
#155 = ORIENTED_EDGE ( 'NONE', *, *, #51, .T. ) ;
#156 = ORIENTED_EDGE ( 'NONE', *, *, #12, .T. ) ;
#157 = ORIENTED_EDGE ( 'NONE', *, *, #130, .T. ) ;
#158 = DIRECTION ( 'NONE',  ( 0.0000000000000000000, 0.0000000000000000000, 1.000000000000000000 ) ) ;
#159 = PLANE ( 'NONE',  #109 ) ;
#160 = LINE ( 'NONE', #182, #2 ) ;
#161 = ADVANCED_FACE ( 'NONE', ( #185 ), #71, .F. ) ;
#162 = ORIENTED_EDGE ( 'NONE', *, *, #138, .F. ) ;
#163 = APPROVAL_STATUS ( 'not_yet_approved' ) ;
#164 = DIRECTION ( 'NONE',  ( 0.0000000000000000000, 1.000000000000000000, 0.0000000000000000000 ) ) ;
#165 = LINE ( 'NONE', #28, #223 ) ;
#166 = CC_DESIGN_PERSON_AND_ORGANIZATION_ASSIGNMENT ( #172, #114, ( #6 ) ) ;
#167 = PLANE ( 'NONE',  #35 ) ;
#168 = PERSON_AND_ORGANIZATION_ROLE ( 'design_supplier' ) ;
#169 = CARTESIAN_POINT ( 'NONE',  ( 100.0000000000000000, -100.0000000000000000, 1.100000000000000100 ) ) ;
#170 = EDGE_LOOP ( 'NONE', ( #99, #78, #120, #155 ) ) ;
#171 = FACE_OUTER_BOUND ( 'NONE', #90, .T. ) ;
#172 = PERSON_AND_ORGANIZATION ( #5, #219 ) ;
#173 = CARTESIAN_POINT ( 'NONE',  ( 0.0000000000000000000, 0.0000000000000000000, 0.0000000000000000000 ) ) ;
#174 = DIRECTION ( 'NONE',  ( 0.0000000000000000000, 0.0000000000000000000, 1.000000000000000000 ) ) ;
#175 = LINE ( 'NONE', #194, #61 ) ;
#176 = APPLICATION_CONTEXT ( 'configuration controlled 3d designs of mechanical parts and assemblies' ) ;
#177 = CARTESIAN_POINT ( 'NONE',  ( 0.0000000000000000000, 0.0000000000000000000, 0.0000000000000000000 ) ) ;
#178 = CC_DESIGN_APPROVAL ( #89, ( #224 ) ) ;
#179 = COORDINATED_UNIVERSAL_TIME_OFFSET ( 5, 0, .BEHIND. ) ;
#180 = ORIENTED_EDGE ( 'NONE', *, *, #96, .F. ) ;
#181 = DIRECTION ( 'NONE',  ( -1.387778780781445700E-016, 1.000000000000000000, 0.0000000000000000000 ) ) ;
#182 = CARTESIAN_POINT ( 'NONE',  ( 100.0000000000000000, -100.0000000000000000, 0.0000000000000000000 ) ) ;
#183 = DIRECTION ( 'NONE',  ( -1.000000000000000000, 0.0000000000000000000, 0.0000000000000000000 ) ) ;
#184 = CC_DESIGN_APPROVAL ( #62, ( #6 ) ) ;
#185 = FACE_OUTER_BOUND ( 'NONE', #150, .T. ) ;
#186 = DATE_AND_TIME ( #19, #137 ) ;
#187 = ADVANCED_FACE ( 'NONE', ( #122 ), #56, .F. ) ;
#188 = ORIENTED_EDGE ( 'NONE', *, *, #23, .T. ) ;
#189 = DIRECTION ( 'NONE',  ( 6.938893903907228400E-017, -1.000000000000000000, -0.0000000000000000000 ) ) ;
#190 = PERSON_AND_ORGANIZATION_ROLE ( 'creator' ) ;
#191 = LINE ( 'NONE', #152, #69 ) ;
#192 = CC_DESIGN_PERSON_AND_ORGANIZATION_ASSIGNMENT ( #13, #190, ( #224 ) ) ;
#193 = DIRECTION ( 'NONE',  ( 1.000000000000000000, 0.0000000000000000000, 0.0000000000000000000 ) ) ;
#194 = CARTESIAN_POINT ( 'NONE',  ( 100.0000000000000000, 100.0000000000000000, 0.0000000000000000000 ) ) ;
#195 = ORIENTED_EDGE ( 'NONE', *, *, #138, .T. ) ;
#196 = AXIS2_PLACEMENT_3D ( 'NONE', #113, #183, #210 ) ;
#197 = DIRECTION ( 'NONE',  ( -6.938893903907228400E-017, 1.000000000000000000, 0.0000000000000000000 ) ) ;
#198 = FACE_OUTER_BOUND ( 'NONE', #209, .T. ) ;
#199 = APPROVAL_ROLE ( '' ) ;
#200 = VERTEX_POINT ( 'NONE', #154 ) ;
#201 = ORIENTED_EDGE ( 'NONE', *, *, #130, .F. ) ;
#202 = ORIENTED_EDGE ( 'NONE', *, *, #97, .T. ) ;
#203 = DIRECTION ( 'NONE',  ( 1.000000000000000000, 0.0000000000000000000, -0.0000000000000000000 ) ) ;
#204 = APPROVAL_PERSON_ORGANIZATION ( #214, #62, #31 ) ;
#205 = VERTEX_POINT ( 'NONE', #58 ) ;
#206 = SHAPE_DEFINITION_REPRESENTATION ( #135, #76 ) ;
#207 = EDGE_CURVE ( 'NONE', #87, #205, #191, .T. ) ;
#208 = APPROVAL_PERSON_ORGANIZATION ( #218, #29, #199 ) ;
#209 = EDGE_LOOP ( 'NONE', ( #188, #36, #110, #157 ) ) ;
#210 = DIRECTION ( 'NONE',  ( 0.0000000000000000000, 0.0000000000000000000, 1.000000000000000000 ) ) ;
#211 = LINE ( 'NONE', #143, #232 ) ;
#212 = CARTESIAN_POINT ( 'NONE',  ( -99.99999999999998600, -100.0000000000000300, 1.100000000000000100 ) ) ;
#213 = LOCAL_TIME ( 13, 47, 4.000000000000000000, #106 ) ;
#214 = PERSON_AND_ORGANIZATION ( #5, #219 ) ;
#215 = LINE ( 'NONE', #140, #111 ) ;
#216 = EDGE_LOOP ( 'NONE', ( #81, #162, #180, #141 ) ) ;
#217 = DATE_AND_TIME ( #18, #21 ) ;
#218 = PERSON_AND_ORGANIZATION ( #5, #219 ) ;
#219 = ORGANIZATION ( 'UNSPECIFIED', 'UNSPECIFIED', '' ) ;
#220 = LINE ( 'NONE', #234, #79 ) ;
#221 = MANIFOLD_SOLID_BREP ( 'Boss-Extrude1', #131 ) ;
#222 = PERSON_AND_ORGANIZATION ( #5, #219 ) ;
#223 = VECTOR ( 'NONE', #144, 1000.000000000000000 ) ;
#224 = PRODUCT_DEFINITION_FORMATION_WITH_SPECIFIED_SOURCE ( 'ANY', '', #229, .NOT_KNOWN. ) ;
#225 = CC_DESIGN_SECURITY_CLASSIFICATION ( #233, ( #224 ) ) ;
#226 = ORIENTED_EDGE ( 'NONE', *, *, #17, .F. ) ;
#227 = CARTESIAN_POINT ( 'NONE',  ( 100.0000000000000000, -100.0000000000000000, 0.0000000000000000000 ) ) ;
#228 = APPLICATION_PROTOCOL_DEFINITION ( 'international standard', 'config_control_design', 1994, #126 ) ;
#229 = PRODUCT ( 'Web Model 83367_83368', 'Web Model 83367_83368', '', ( #38 ) ) ;
#230 = COORDINATED_UNIVERSAL_TIME_OFFSET ( 5, 0, .BEHIND. ) ;
#231 = VERTEX_POINT ( 'NONE', #11 ) ;
#232 = VECTOR ( 'NONE', #189, 1000.000000000000000 ) ;
#233 = SECURITY_CLASSIFICATION ( '', '', #27 ) ;
#234 = CARTESIAN_POINT ( 'NONE',  ( 100.0000000000000000, 100.0000000000000000, 1.100000000000000100 ) ) ;
#235 = CARTESIAN_POINT ( 'NONE',  ( 100.0000000000000000, 100.0000000000000000, 1.100000000000000100 ) ) ;
#236 = ADVANCED_FACE ( 'NONE', ( #83 ), #159, .F. ) ;
#237 = ORIENTED_EDGE ( 'NONE', *, *, #207, .F. ) ;
ENDSEC;
END-ISO-10303-21;
