ISO-10303-21;
HEADER;
FILE_DESCRIPTION (( 'STEP AP214' ),
    '1' );
FILE_NAME ('3476-E0W.STEP',
    '2009-12-21T17:00:04',
    ( ' ' ),
    ( ' ' ),
    'SwSTEP 2.0',
    'SolidWorks 2009',
    '' );
FILE_SCHEMA (( 'AUTOMOTIVE_DESIGN' ));
ENDSEC;

DATA;
#1 =( NAMED_UNIT ( * ) PLANE_ANGLE_UNIT ( ) SI_UNIT ( $, .RADIAN. ) );
#2 = ORIENTED_EDGE ( 'NONE', *, *, #52, .F. ) ;
#3 = EDGE_CURVE ( 'NONE', #49, #36, #25, .T. ) ;
#4 = EDGE_LOOP ( 'NONE', ( #29, #59, #42, #45 ) ) ;
#5 = ORIENTED_EDGE ( 'NONE', *, *, #60, .T. ) ;
#6 = EDGE_LOOP ( 'NONE', ( #2, #5, #17, #19, #7, #8 ) ) ;
#7 = ORIENTED_EDGE ( 'NONE', *, *, #34, .F. ) ;
#8 = ORIENTED_EDGE ( 'NONE', *, *, #18, .F. ) ;
#9 = ADVANCED_FACE ( 'NONE', ( #162 ), #188, .F. ) ;
#10 = EDGE_LOOP ( 'NONE', ( #11, #62, #65, #71 ) ) ;
#11 = ORIENTED_EDGE ( 'NONE', *, *, #12, .F. ) ;
#12 = EDGE_CURVE ( 'NONE', #48, #49, #77, .T. ) ;
#13 =( GEOMETRIC_REPRESENTATION_CONTEXT ( 3 ) GLOBAL_UNCERTAINTY_ASSIGNED_CONTEXT ( ( #261 ) ) GLOBAL_UNIT_ASSIGNED_CONTEXT ( ( #222, #263, #262 ) ) REPRESENTATION_CONTEXT ( 'NONE', 'WORKASPACE' ) );
#14 = ORIENTED_EDGE ( 'NONE', *, *, #35, .T. ) ;
#15 = ORIENTED_EDGE ( 'NONE', *, *, #32, .T. ) ;
#16 = ORIENTED_EDGE ( 'NONE', *, *, #60, .F. ) ;
#17 = ORIENTED_EDGE ( 'NONE', *, *, #12, .T. ) ;
#18 = EDGE_CURVE ( 'NONE', #50, #53, #142, .T. ) ;
#19 = ORIENTED_EDGE ( 'NONE', *, *, #3, .T. ) ;
#20 = ORIENTED_EDGE ( 'NONE', *, *, #72, .T. ) ;
#21 = ORIENTED_EDGE ( 'NONE', *, *, #68, .T. ) ;
#22 = DIRECTION ( 'NONE',  ( -0.0000000000000000000, -0.0000000000000000000, 1.000000000000000000 ) ) ;
#23 = VECTOR ( 'NONE', #22, 1000.000000000000000 ) ;
#24 = CARTESIAN_POINT ( 'NONE',  ( 12.70000000000000100, 0.0000000000000000000, 9.330967066376240700 ) ) ;
#25 = LINE ( 'NONE', #24, #23 ) ;
#26 = ADVANCED_BREP_SHAPE_REPRESENTATION ( '3476-E0W', ( #70, #308 ), #13 ) ;
#27 = EDGE_CURVE ( 'NONE', #53, #47, #108, .T. ) ;
#28 = EDGE_LOOP ( 'NONE', ( #55, #56, #14, #15 ) ) ;
#29 = ORIENTED_EDGE ( 'NONE', *, *, #54, .T. ) ;
#30 = ORIENTED_EDGE ( 'NONE', *, *, #54, .F. ) ;
#31 = ORIENTED_EDGE ( 'NONE', *, *, #35, .F. ) ;
#32 = EDGE_CURVE ( 'NONE', #39, #47, #80, .T. ) ;
#33 = ADVANCED_FACE ( 'NONE', ( #175 ), #201, .T. ) ;
#34 = EDGE_CURVE ( 'NONE', #53, #36, #132, .T. ) ;
#35 = EDGE_CURVE ( 'NONE', #36, #39, #103, .T. ) ;
#36 = VERTEX_POINT ( 'NONE', #160 ) ;
#37 = ORIENTED_EDGE ( 'NONE', *, *, #66, .T. ) ;
#38 = ORIENTED_EDGE ( 'NONE', *, *, #3, .F. ) ;
#39 = VERTEX_POINT ( 'NONE', #159 ) ;
#40 = EDGE_LOOP ( 'NONE', ( #41, #16, #57, #37 ) ) ;
#41 = ORIENTED_EDGE ( 'NONE', *, *, #63, .F. ) ;
#42 = ORIENTED_EDGE ( 'NONE', *, *, #27, .T. ) ;
#43 = ADVANCED_FACE ( 'NONE', ( #158 ), #187, .F. ) ;
#44 = ADVANCED_FACE ( 'NONE', ( #186 ), #120, .T. ) ;
#45 = ORIENTED_EDGE ( 'NONE', *, *, #32, .F. ) ;
#46 = ADVANCED_FACE ( 'NONE', ( #118 ), #228, .T. ) ;
#47 = VERTEX_POINT ( 'NONE', #264 ) ;
#48 = VERTEX_POINT ( 'NONE', #229 ) ;
#49 = VERTEX_POINT ( 'NONE', #267 ) ;
#50 = VERTEX_POINT ( 'NONE', #266 ) ;
#51 = ORIENTED_EDGE ( 'NONE', *, *, #52, .T. ) ;
#52 = EDGE_CURVE ( 'NONE', #69, #50, #214, .T. ) ;
#53 = VERTEX_POINT ( 'NONE', #268 ) ;
#54 = EDGE_CURVE ( 'NONE', #39, #50, #221, .T. ) ;
#55 = ORIENTED_EDGE ( 'NONE', *, *, #27, .F. ) ;
#56 = ORIENTED_EDGE ( 'NONE', *, *, #34, .T. ) ;
#57 = ORIENTED_EDGE ( 'NONE', *, *, #68, .F. ) ;
#58 = CLOSED_SHELL ( 'NONE', ( #9, #73, #46, #44, #33, #43 ) ) ;
#59 = ORIENTED_EDGE ( 'NONE', *, *, #18, .T. ) ;
#60 = EDGE_CURVE ( 'NONE', #69, #48, #217, .T. ) ;
#61 = EDGE_LOOP ( 'NONE', ( #20, #21, #51, #30, #31, #38 ) ) ;
#62 = ORIENTED_EDGE ( 'NONE', *, *, #63, .T. ) ;
#63 = EDGE_CURVE ( 'NONE', #48, #64, #220, .T. ) ;
#64 = VERTEX_POINT ( 'NONE', #284 ) ;
#65 = ORIENTED_EDGE ( 'NONE', *, *, #66, .F. ) ;
#66 = EDGE_CURVE ( 'NONE', #67, #64, #291, .T. ) ;
#67 = VERTEX_POINT ( 'NONE', #245 ) ;
#68 = EDGE_CURVE ( 'NONE', #67, #69, #205, .T. ) ;
#69 = VERTEX_POINT ( 'NONE', #248 ) ;
#70 = MANIFOLD_SOLID_BREP ( 'NONE', #58 ) ;
#71 = ORIENTED_EDGE ( 'NONE', *, *, #72, .F. ) ;
#72 = EDGE_CURVE ( 'NONE', #49, #67, #275, .T. ) ;
#73 = ADVANCED_FACE ( 'NONE', ( #276 ), #206, .T. ) ;
#74 = STYLED_ITEM ( 'NONE', ( #75 ), #9 ) ;
#75 = PRESENTATION_STYLE_ASSIGNMENT (( #76 ) ) ;
#76 = SURFACE_STYLE_USAGE ( .BOTH. , #107 ) ;
#77 = CIRCLE ( 'NONE', #96, 12.70000000000000300 ) ;
#78 = CARTESIAN_POINT ( 'NONE',  ( 0.0000000000000000000, 0.0000000000000000000, -248.0741366884648200 ) ) ;
#79 = AXIS2_PLACEMENT_3D ( 'NONE', #78, #177, #176 ) ;
#80 = CIRCLE ( 'NONE', #79, 249.9999999999999700 ) ;
#81 = FILL_AREA_STYLE_COLOUR ( '', #174 ) ;
#82 =( LENGTH_UNIT ( ) NAMED_UNIT ( * ) SI_UNIT ( .MILLI., .METRE. ) );
#83 = MECHANICAL_DESIGN_GEOMETRIC_PRESENTATION_REPRESENTATION (  '', ( #85 ), #121 ) ;
#84 = PRESENTATION_LAYER_ASSIGNMENT (  '', '', ( #85 ) ) ;
#85 = STYLED_ITEM ( 'NONE', ( #86 ), #44 ) ;
#86 = PRESENTATION_STYLE_ASSIGNMENT (( #87 ) ) ;
#87 = SURFACE_STYLE_USAGE ( .BOTH. , #88 ) ;
#88 = SURFACE_SIDE_STYLE ('',( #89 ) ) ;
#89 = SURFACE_STYLE_FILL_AREA ( #90 ) ;
#90 = FILL_AREA_STYLE ('',( #180 ) ) ;
#91 = UNCERTAINTY_MEASURE_WITH_UNIT (LENGTH_MEASURE( 1.000000000000000100E-005 ), #125, 'distance_accuracy_value', 'NONE');
#92 =( GEOMETRIC_REPRESENTATION_CONTEXT ( 3 ) GLOBAL_UNCERTAINTY_ASSIGNED_CONTEXT ( ( #91 ) ) GLOBAL_UNIT_ASSIGNED_CONTEXT ( ( #125, #178, #98 ) ) REPRESENTATION_CONTEXT ( 'NONE', 'WORKASPACE' ) );
#93 = DIRECTION ( 'NONE',  ( 1.000000000000000000, 0.0000000000000000000, 0.0000000000000000000 ) ) ;
#94 = DIRECTION ( 'NONE',  ( -0.0000000000000000000, -0.0000000000000000000, 1.000000000000000000 ) ) ;
#95 = CARTESIAN_POINT ( 'NONE',  ( 0.0000000000000000000, 0.0000000000000000000, -1.925863311535186400 ) ) ;
#96 = AXIS2_PLACEMENT_3D ( 'NONE', #95, #94, #93 ) ;
#97 = MECHANICAL_DESIGN_GEOMETRIC_PRESENTATION_REPRESENTATION (  '', ( #74 ), #92 ) ;
#98 =( NAMED_UNIT ( * ) SI_UNIT ( $, .STERADIAN. ) SOLID_ANGLE_UNIT ( ) );
#99 = DIRECTION ( 'NONE',  ( 1.000000000000000000, 0.0000000000000000000, 0.0000000000000000000 ) ) ;
#100 = DIRECTION ( 'NONE',  ( -0.0000000000000000000, -0.0000000000000000000, 1.000000000000000000 ) ) ;
#101 = CARTESIAN_POINT ( 'NONE',  ( 0.0000000000000000000, 0.0000000000000000000, 1.603074926852592300 ) ) ;
#102 = AXIS2_PLACEMENT_3D ( 'NONE', #101, #100, #99 ) ;
#103 = CIRCLE ( 'NONE', #102, 12.69999999999999900 ) ;
#104 = DIRECTION ( 'NONE',  ( 1.000000000000000000, 0.0000000000000000000, 0.0000000000000000000 ) ) ;
#105 = DIRECTION ( 'NONE',  ( -0.0000000000000000000, -0.0000000000000000000, 1.000000000000000000 ) ) ;
#106 = COLOUR_RGB ( '',0.9568627450980391500, 0.9490196078431372100, 0.9607843137254902200 ) ;
#107 = SURFACE_SIDE_STYLE ('',( #161 ) ) ;
#108 = CIRCLE ( 'NONE', #169, 250.0000000000000000 ) ;
#109 = DIRECTION ( 'NONE',  ( 1.000000000000000000, 0.0000000000000000000, 0.0000000000000000000 ) ) ;
#110 = DIRECTION ( 'NONE',  ( -0.0000000000000000000, -0.0000000000000000000, 1.000000000000000000 ) ) ;
#111 = CARTESIAN_POINT ( 'NONE',  ( 0.0000000000000000000, 0.0000000000000000000, 1.603074926852592300 ) ) ;
#112 = UNCERTAINTY_MEASURE_WITH_UNIT (LENGTH_MEASURE( 1.000000000000000100E-005 ), #143, 'distance_accuracy_value', 'NONE');
#113 =( NAMED_UNIT ( * ) SI_UNIT ( $, .STERADIAN. ) SOLID_ANGLE_UNIT ( ) );
#114 = PRESENTATION_LAYER_ASSIGNMENT (  '', '', ( #74 ) ) ;
#115 = DIRECTION ( 'NONE',  ( -1.000000000000000000, 0.0000000000000000000, 0.0000000000000000000 ) ) ;
#116 = CARTESIAN_POINT ( 'NONE',  ( 0.0000000000000000000, 0.0000000000000000000, -248.0741366884648200 ) ) ;
#117 = AXIS2_PLACEMENT_3D ( 'NONE', #116, #115, #199 ) ;
#118 = FACE_OUTER_BOUND ( 'NONE', #4, .T. ) ;
#119 = FILL_AREA_STYLE_COLOUR ( '', #198 ) ;
#120 = SPHERICAL_SURFACE ( 'NONE', #117, 250.0000000000000000 ) ;
#121 =( GEOMETRIC_REPRESENTATION_CONTEXT ( 3 ) GLOBAL_UNCERTAINTY_ASSIGNED_CONTEXT ( ( #127 ) ) GLOBAL_UNIT_ASSIGNED_CONTEXT ( ( #82, #129, #128 ) ) REPRESENTATION_CONTEXT ( 'NONE', 'WORKASPACE' ) );
#122 =( NAMED_UNIT ( * ) SI_UNIT ( $, .STERADIAN. ) SOLID_ANGLE_UNIT ( ) );
#123 =( NAMED_UNIT ( * ) PLANE_ANGLE_UNIT ( ) SI_UNIT ( $, .RADIAN. ) );
#124 =( LENGTH_UNIT ( ) NAMED_UNIT ( * ) SI_UNIT ( .MILLI., .METRE. ) );
#125 =( LENGTH_UNIT ( ) NAMED_UNIT ( * ) SI_UNIT ( .MILLI., .METRE. ) );
#126 = FILL_AREA_STYLE_COLOUR ( '', #106 ) ;
#127 = UNCERTAINTY_MEASURE_WITH_UNIT (LENGTH_MEASURE( 1.000000000000000100E-005 ), #82, 'distance_accuracy_value', 'NONE');
#128 =( NAMED_UNIT ( * ) SI_UNIT ( $, .STERADIAN. ) SOLID_ANGLE_UNIT ( ) );
#129 =( NAMED_UNIT ( * ) PLANE_ANGLE_UNIT ( ) SI_UNIT ( $, .RADIAN. ) );
#130 = CARTESIAN_POINT ( 'NONE',  ( 0.0000000000000000000, 0.0000000000000000000, 1.603074926852592300 ) ) ;
#131 = AXIS2_PLACEMENT_3D ( 'NONE', #130, #105, #104 ) ;
#132 = CIRCLE ( 'NONE', #131, 12.69999999999999900 ) ;
#133 = DIRECTION ( 'NONE',  ( 1.000000000000000000, 0.0000000000000000000, 0.0000000000000000000 ) ) ;
#134 = DIRECTION ( 'NONE',  ( -0.0000000000000000000, -0.0000000000000000000, 1.000000000000000000 ) ) ;
#135 = CARTESIAN_POINT ( 'NONE',  ( 0.0000000000000000000, 0.0000000000000000000, 9.330967066376240700 ) ) ;
#136 = AXIS2_PLACEMENT_3D ( 'NONE', #135, #134, #133 ) ;
#137 =( NAMED_UNIT ( * ) PLANE_ANGLE_UNIT ( ) SI_UNIT ( $, .RADIAN. ) );
#138 =( GEOMETRIC_REPRESENTATION_CONTEXT ( 3 ) GLOBAL_UNCERTAINTY_ASSIGNED_CONTEXT ( ( #139 ) ) GLOBAL_UNIT_ASSIGNED_CONTEXT ( ( #124, #123, #122 ) ) REPRESENTATION_CONTEXT ( 'NONE', 'WORKASPACE' ) );
#139 = UNCERTAINTY_MEASURE_WITH_UNIT (LENGTH_MEASURE( 1.000000000000000100E-005 ), #124, 'distance_accuracy_value', 'NONE');
#140 = FILL_AREA_STYLE ('',( #126 ) ) ;
#141 = AXIS2_PLACEMENT_3D ( 'NONE', #111, #110, #109 ) ;
#142 = CIRCLE ( 'NONE', #141, 12.69999999999999900 ) ;
#143 =( LENGTH_UNIT ( ) NAMED_UNIT ( * ) SI_UNIT ( .MILLI., .METRE. ) );
#144 = MECHANICAL_DESIGN_GEOMETRIC_PRESENTATION_REPRESENTATION (  '', ( #146 ), #179 ) ;
#145 = PRESENTATION_LAYER_ASSIGNMENT (  '', '', ( #146 ) ) ;
#146 = STYLED_ITEM ( 'NONE', ( #147 ), #33 ) ;
#147 = PRESENTATION_STYLE_ASSIGNMENT (( #170 ) ) ;
#148 = MECHANICAL_DESIGN_GEOMETRIC_PRESENTATION_REPRESENTATION (  '', ( #150 ), #138 ) ;
#149 = PRESENTATION_LAYER_ASSIGNMENT (  '', '', ( #150 ) ) ;
#150 = STYLED_ITEM ( 'NONE', ( #151 ), #43 ) ;
#151 = PRESENTATION_STYLE_ASSIGNMENT (( #152 ) ) ;
#152 = SURFACE_STYLE_USAGE ( .BOTH. , #153 ) ;
#153 = SURFACE_SIDE_STYLE ('',( #154 ) ) ;
#154 = SURFACE_STYLE_FILL_AREA ( #155 ) ;
#155 = FILL_AREA_STYLE ('',( #156 ) ) ;
#156 = FILL_AREA_STYLE_COLOUR ( '', #157 ) ;
#157 = COLOUR_RGB ( '',0.9568627450980391500, 0.9490196078431372100, 0.9607843137254902200 ) ;
#158 = FACE_OUTER_BOUND ( 'NONE', #40, .T. ) ;
#159 = CARTESIAN_POINT ( 'NONE',  ( 0.0000000000000000000, 12.70000000000016400, 1.603074926852598600 ) ) ;
#160 = CARTESIAN_POINT ( 'NONE',  ( 12.69999999999999900, 0.0000000000000000000, 1.603074926852592300 ) ) ;
#161 = SURFACE_STYLE_FILL_AREA ( #140 ) ;
#162 = FACE_OUTER_BOUND ( 'NONE', #10, .T. ) ;
#163 = DIRECTION ( 'NONE',  ( 0.0000000000000000000, 1.000000000000000000, 0.0000000000000000000 ) ) ;
#164 = DIRECTION ( 'NONE',  ( -1.000000000000000000, 0.0000000000000000000, 0.0000000000000000000 ) ) ;
#165 = CARTESIAN_POINT ( 'NONE',  ( 0.0000000000000000000, 0.0000000000000000000, -96.18413668846481800 ) ) ;
#166 = DIRECTION ( 'NONE',  ( -1.224606353822377300E-016, -1.000000000000000000, 0.0000000000000000000 ) ) ;
#167 = DIRECTION ( 'NONE',  ( -1.000000000000000000, 1.224606353822377300E-016, 0.0000000000000000000 ) ) ;
#168 = CARTESIAN_POINT ( 'NONE',  ( 0.0000000000000000000, 0.0000000000000000000, -248.0741366884648200 ) ) ;
#169 = AXIS2_PLACEMENT_3D ( 'NONE', #168, #167, #166 ) ;
#170 = SURFACE_STYLE_USAGE ( .BOTH. , #171 ) ;
#171 = SURFACE_SIDE_STYLE ('',( #172 ) ) ;
#172 = SURFACE_STYLE_FILL_AREA ( #173 ) ;
#173 = FILL_AREA_STYLE ('',( #81 ) ) ;
#174 = COLOUR_RGB ( '',0.9568627450980391500, 0.9490196078431372100, 0.9607843137254902200 ) ;
#175 = FACE_OUTER_BOUND ( 'NONE', #6, .T. ) ;
#176 = DIRECTION ( 'NONE',  ( 0.0000000000000000000, 0.0000000000000000000, -1.000000000000000000 ) ) ;
#177 = DIRECTION ( 'NONE',  ( 1.000000000000000000, 0.0000000000000000000, 0.0000000000000000000 ) ) ;
#178 =( NAMED_UNIT ( * ) PLANE_ANGLE_UNIT ( ) SI_UNIT ( $, .RADIAN. ) );
#179 =( GEOMETRIC_REPRESENTATION_CONTEXT ( 3 ) GLOBAL_UNCERTAINTY_ASSIGNED_CONTEXT ( ( #112 ) ) GLOBAL_UNIT_ASSIGNED_CONTEXT ( ( #143, #137, #113 ) ) REPRESENTATION_CONTEXT ( 'NONE', 'WORKASPACE' ) );
#180 = FILL_AREA_STYLE_COLOUR ( '', #185 ) ;
#181 = DIRECTION ( 'NONE',  ( 0.0000000000000000000, 1.000000000000000000, 0.0000000000000000000 ) ) ;
#182 = DIRECTION ( 'NONE',  ( -1.000000000000000000, 0.0000000000000000000, 0.0000000000000000000 ) ) ;
#183 = CARTESIAN_POINT ( 'NONE',  ( 0.0000000000000000000, 0.0000000000000000000, -96.18413668846481800 ) ) ;
#184 = AXIS2_PLACEMENT_3D ( 'NONE', #183, #182, #181 ) ;
#185 = COLOUR_RGB ( '',0.9568627450980391500, 0.9490196078431372100, 0.9607843137254902200 ) ;
#186 = FACE_OUTER_BOUND ( 'NONE', #28, .T. ) ;
#187 = SPHERICAL_SURFACE ( 'NONE', #184, 95.10999999999999900 ) ;
#188 = SPHERICAL_SURFACE ( 'NONE', #200, 95.10999999999999900 ) ;
#189 =( LENGTH_UNIT ( ) NAMED_UNIT ( * ) SI_UNIT ( .MILLI., .METRE. ) );
#190 = MECHANICAL_DESIGN_GEOMETRIC_PRESENTATION_REPRESENTATION (  '', ( #192 ), #285 ) ;
#191 = PRESENTATION_LAYER_ASSIGNMENT (  '', '', ( #192 ) ) ;
#192 = STYLED_ITEM ( 'NONE', ( #193 ), #46 ) ;
#193 = PRESENTATION_STYLE_ASSIGNMENT (( #194 ) ) ;
#194 = SURFACE_STYLE_USAGE ( .BOTH. , #195 ) ;
#195 = SURFACE_SIDE_STYLE ('',( #196 ) ) ;
#196 = SURFACE_STYLE_FILL_AREA ( #197 ) ;
#197 = FILL_AREA_STYLE ('',( #119 ) ) ;
#198 = COLOUR_RGB ( '',0.9568627450980391500, 0.9490196078431372100, 0.9607843137254902200 ) ;
#199 = DIRECTION ( 'NONE',  ( 0.0000000000000000000, 1.000000000000000000, 0.0000000000000000000 ) ) ;
#200 = AXIS2_PLACEMENT_3D ( 'NONE', #165, #164, #163 ) ;
#201 = CYLINDRICAL_SURFACE ( 'NONE', #136, 12.70000000000000100 ) ;
#202 = DIRECTION ( 'NONE',  ( 1.000000000000000000, 0.0000000000000000000, 0.0000000000000000000 ) ) ;
#203 = CARTESIAN_POINT ( 'NONE',  ( 0.0000000000000000000, 0.0000000000000000000, -1.925863311535186400 ) ) ;
#204 = AXIS2_PLACEMENT_3D ( 'NONE', #203, #250, #249 ) ;
#205 = CIRCLE ( 'NONE', #204, 12.70000000000000300 ) ;
#206 = CYLINDRICAL_SURFACE ( 'NONE', #207, 12.70000000000000100 ) ;
#207 = AXIS2_PLACEMENT_3D ( 'NONE', #225, #224, #223 ) ;
#208 =( GEOMETRIC_REPRESENTATION_CONTEXT ( 3 ) GLOBAL_UNCERTAINTY_ASSIGNED_CONTEXT ( ( #209 ) ) GLOBAL_UNIT_ASSIGNED_CONTEXT ( ( #256, #235, #234 ) ) REPRESENTATION_CONTEXT ( 'NONE', 'WORKASPACE' ) );
#209 = UNCERTAINTY_MEASURE_WITH_UNIT (LENGTH_MEASURE( 1.000000000000000100E-005 ), #256, 'distance_accuracy_value', 'NONE');
#210 = DIRECTION ( 'NONE',  ( 0.0000000000000000000, 1.000000000000000000, 0.0000000000000000000 ) ) ;
#211 = UNCERTAINTY_MEASURE_WITH_UNIT (LENGTH_MEASURE( 1.000000000000000100E-005 ), #189, 'distance_accuracy_value', 'NONE');
#212 = VECTOR ( 'NONE', #272, 1000.000000000000000 ) ;
#213 = CARTESIAN_POINT ( 'NONE',  ( -12.70000000000000100, 1.555250069354419300E-015, 9.330967066376240700 ) ) ;
#214 = LINE ( 'NONE', #213, #212 ) ;
#215 = DIRECTION ( 'NONE',  ( -0.0000000000000000000, -0.0000000000000000000, 1.000000000000000000 ) ) ;
#216 = AXIS2_PLACEMENT_3D ( 'NONE', #232, #215, #202 ) ;
#217 = CIRCLE ( 'NONE', #216, 12.70000000000000300 ) ;
#218 = DIRECTION ( 'NONE',  ( 1.000000000000000000, 0.0000000000000000000, 0.0000000000000000000 ) ) ;
#219 = DIRECTION ( 'NONE',  ( -0.0000000000000000000, -0.0000000000000000000, 1.000000000000000000 ) ) ;
#220 = CIRCLE ( 'NONE', #283, 95.10999999999999900 ) ;
#221 = CIRCLE ( 'NONE', #231, 12.69999999999999900 ) ;
#222 =( LENGTH_UNIT ( ) NAMED_UNIT ( * ) SI_UNIT ( .MILLI., .METRE. ) );
#223 = DIRECTION ( 'NONE',  ( 1.000000000000000000, 0.0000000000000000000, 0.0000000000000000000 ) ) ;
#224 = DIRECTION ( 'NONE',  ( -0.0000000000000000000, -0.0000000000000000000, 1.000000000000000000 ) ) ;
#225 = CARTESIAN_POINT ( 'NONE',  ( 0.0000000000000000000, 0.0000000000000000000, 9.330967066376240700 ) ) ;
#226 = UNCERTAINTY_MEASURE_WITH_UNIT (LENGTH_MEASURE( 1.000000000000000100E-005 ), #227, 'distance_accuracy_value', 'NONE');
#227 =( LENGTH_UNIT ( ) NAMED_UNIT ( * ) SI_UNIT ( .MILLI., .METRE. ) );
#228 = SPHERICAL_SURFACE ( 'NONE', #287, 250.0000000000000000 ) ;
#229 = CARTESIAN_POINT ( 'NONE',  ( -1.555250069354414300E-015, -12.69999999999996200, -1.925863311535179500 ) ) ;
#230 = CARTESIAN_POINT ( 'NONE',  ( 0.0000000000000000000, 0.0000000000000000000, 1.603074926852592300 ) ) ;
#231 = AXIS2_PLACEMENT_3D ( 'NONE', #230, #219, #218 ) ;
#232 = CARTESIAN_POINT ( 'NONE',  ( 0.0000000000000000000, 0.0000000000000000000, -1.925863311535186400 ) ) ;
#233 =( NAMED_UNIT ( * ) SI_UNIT ( $, .STERADIAN. ) SOLID_ANGLE_UNIT ( ) );
#234 =( NAMED_UNIT ( * ) SI_UNIT ( $, .STERADIAN. ) SOLID_ANGLE_UNIT ( ) );
#235 =( NAMED_UNIT ( * ) PLANE_ANGLE_UNIT ( ) SI_UNIT ( $, .RADIAN. ) );
#236 = SURFACE_STYLE_USAGE ( .BOTH. , #237 ) ;
#237 = SURFACE_SIDE_STYLE ('',( #238 ) ) ;
#238 = SURFACE_STYLE_FILL_AREA ( #239 ) ;
#239 = FILL_AREA_STYLE ('',( #240 ) ) ;
#240 = FILL_AREA_STYLE_COLOUR ( '', #241 ) ;
#241 = COLOUR_RGB ( '',0.9568627450980391500, 0.9490196078431372100, 0.9607843137254902200 ) ;
#242 = DIRECTION ( 'NONE',  ( 1.000000000000000000, 0.0000000000000000000, 0.0000000000000000000 ) ) ;
#243 = DIRECTION ( 'NONE',  ( -0.0000000000000000000, -0.0000000000000000000, 1.000000000000000000 ) ) ;
#244 =( NAMED_UNIT ( * ) SI_UNIT ( $, .STERADIAN. ) SOLID_ANGLE_UNIT ( ) );
#245 = CARTESIAN_POINT ( 'NONE',  ( 0.0000000000000000000, 12.69999999999996200, -1.925863311535179500 ) ) ;
#246 = DIRECTION ( 'NONE',  ( 0.0000000000000000000, 0.0000000000000000000, -1.000000000000000000 ) ) ;
#247 = COLOUR_RGB ( '',0.7960784313725489700, 0.8235294117647058400, 0.9372549019607843100 ) ;
#248 = CARTESIAN_POINT ( 'NONE',  ( -12.70000000000000500, 1.555250069354419700E-015, -1.925863311535186400 ) ) ;
#249 = DIRECTION ( 'NONE',  ( 1.000000000000000000, 0.0000000000000000000, 0.0000000000000000000 ) ) ;
#250 = DIRECTION ( 'NONE',  ( -0.0000000000000000000, -0.0000000000000000000, 1.000000000000000000 ) ) ;
#251 = SURFACE_STYLE_USAGE ( .BOTH. , #252 ) ;
#252 = SURFACE_SIDE_STYLE ('',( #253 ) ) ;
#253 = SURFACE_STYLE_FILL_AREA ( #254 ) ;
#254 = FILL_AREA_STYLE ('',( #255 ) ) ;
#255 = FILL_AREA_STYLE_COLOUR ( '', #247 ) ;
#256 =( LENGTH_UNIT ( ) NAMED_UNIT ( * ) SI_UNIT ( .MILLI., .METRE. ) );
#257 = MECHANICAL_DESIGN_GEOMETRIC_PRESENTATION_REPRESENTATION (  '', ( #259 ), #208 ) ;
#258 = PRESENTATION_LAYER_ASSIGNMENT (  '', '', ( #259 ) ) ;
#259 = STYLED_ITEM ( 'NONE', ( #260 ), #73 ) ;
#260 = PRESENTATION_STYLE_ASSIGNMENT (( #236 ) ) ;
#261 = UNCERTAINTY_MEASURE_WITH_UNIT (LENGTH_MEASURE( 1.000000000000000100E-005 ), #222, 'distance_accuracy_value', 'NONE');
#262 =( NAMED_UNIT ( * ) SI_UNIT ( $, .STERADIAN. ) SOLID_ANGLE_UNIT ( ) );
#263 =( NAMED_UNIT ( * ) PLANE_ANGLE_UNIT ( ) SI_UNIT ( $, .RADIAN. ) );
#264 = CARTESIAN_POINT ( 'NONE',  ( 0.0000000000000000000, 1.530757942277971600E-014, 1.925863311535186400 ) ) ;
#265 =( NAMED_UNIT ( * ) PLANE_ANGLE_UNIT ( ) SI_UNIT ( $, .RADIAN. ) );
#266 = CARTESIAN_POINT ( 'NONE',  ( -12.69999999999999900, 1.555250069354419300E-015, 1.603074926852592300 ) ) ;
#267 = CARTESIAN_POINT ( 'NONE',  ( 12.70000000000000300, 0.0000000000000000000, -1.925863311535186400 ) ) ;
#268 = CARTESIAN_POINT ( 'NONE',  ( -1.555250069354439400E-015, -12.70000000000016400, 1.603074926852598600 ) ) ;
#269 = DIRECTION ( 'NONE',  ( -1.224606353822377300E-016, -1.000000000000000000, 0.0000000000000000000 ) ) ;
#270 = DIRECTION ( 'NONE',  ( -1.000000000000000000, 1.224606353822377300E-016, 0.0000000000000000000 ) ) ;
#271 =( GEOMETRIC_REPRESENTATION_CONTEXT ( 3 ) GLOBAL_UNCERTAINTY_ASSIGNED_CONTEXT ( ( #226 ) ) GLOBAL_UNIT_ASSIGNED_CONTEXT ( ( #227, #265, #244 ) ) REPRESENTATION_CONTEXT ( 'NONE', 'WORKASPACE' ) );
#272 = DIRECTION ( 'NONE',  ( -0.0000000000000000000, -0.0000000000000000000, 1.000000000000000000 ) ) ;
#273 = CARTESIAN_POINT ( 'NONE',  ( 0.0000000000000000000, 0.0000000000000000000, -1.925863311535186400 ) ) ;
#274 = AXIS2_PLACEMENT_3D ( 'NONE', #273, #243, #242 ) ;
#275 = CIRCLE ( 'NONE', #274, 12.70000000000000300 ) ;
#276 = FACE_OUTER_BOUND ( 'NONE', #61, .T. ) ;
#277 = CARTESIAN_POINT ( 'NONE',  ( 0.0000000000000000000, 0.0000000000000000000, -248.0741366884648200 ) ) ;
#278 = MECHANICAL_DESIGN_GEOMETRIC_PRESENTATION_REPRESENTATION (  '', ( #280 ), #271 ) ;
#279 = PRESENTATION_LAYER_ASSIGNMENT (  '', '', ( #280 ) ) ;
#280 = STYLED_ITEM ( 'NONE', ( #281 ), #70 ) ;
#281 = PRESENTATION_STYLE_ASSIGNMENT (( #251 ) ) ;
#282 = CARTESIAN_POINT ( 'NONE',  ( 0.0000000000000000000, 0.0000000000000000000, -96.18413668846481800 ) ) ;
#283 = AXIS2_PLACEMENT_3D ( 'NONE', #282, #270, #269 ) ;
#284 = CARTESIAN_POINT ( 'NONE',  ( 0.0000000000000000000, 5.823615515602314800E-015, -1.074136688464816200 ) ) ;
#285 =( GEOMETRIC_REPRESENTATION_CONTEXT ( 3 ) GLOBAL_UNCERTAINTY_ASSIGNED_CONTEXT ( ( #211 ) ) GLOBAL_UNIT_ASSIGNED_CONTEXT ( ( #189, #1, #233 ) ) REPRESENTATION_CONTEXT ( 'NONE', 'WORKASPACE' ) );
#286 = DIRECTION ( 'NONE',  ( -1.000000000000000000, 0.0000000000000000000, 0.0000000000000000000 ) ) ;
#287 = AXIS2_PLACEMENT_3D ( 'NONE', #277, #286, #210 ) ;
#288 = DIRECTION ( 'NONE',  ( 1.000000000000000000, -0.0000000000000000000, 0.0000000000000000000 ) ) ;
#289 = CARTESIAN_POINT ( 'NONE',  ( 0.0000000000000000000, 0.0000000000000000000, -96.18413668846481800 ) ) ;
#290 = AXIS2_PLACEMENT_3D ( 'NONE', #289, #288, #246 ) ;
#291 = CIRCLE ( 'NONE', #290, 95.10999999999999900 ) ;
#292 = FILL_AREA_STYLE ('',( #297 ) ) ;
#293 = MECHANICAL_DESIGN_GEOMETRIC_PRESENTATION_REPRESENTATION (  '', ( #298 ), #309 ) ;
#294 =( LENGTH_UNIT ( ) NAMED_UNIT ( * ) SI_UNIT ( .MILLI., .METRE. ) );
#295 = PRESENTATION_LAYER_ASSIGNMENT (  '', '', ( #298 ) ) ;
#296 =( NAMED_UNIT ( * ) SI_UNIT ( $, .STERADIAN. ) SOLID_ANGLE_UNIT ( ) );
#297 = FILL_AREA_STYLE_COLOUR ( '', #304 ) ;
#298 = STYLED_ITEM ( 'NONE', ( #299 ), #26 ) ;
#299 = PRESENTATION_STYLE_ASSIGNMENT (( #306 ) ) ;
#300 = UNCERTAINTY_MEASURE_WITH_UNIT (LENGTH_MEASURE( 1.000000000000000100E-005 ), #294, 'distance_accuracy_value', 'NONE');
#301 = DIRECTION ( 'NONE',  ( 0.0000000000000000000, 0.0000000000000000000, 1.000000000000000000 ) ) ;
#302 = CARTESIAN_POINT ( 'NONE',  ( 0.0000000000000000000, 0.0000000000000000000, 0.0000000000000000000 ) ) ;
#303 = DIRECTION ( 'NONE',  ( 1.000000000000000000, 0.0000000000000000000, 0.0000000000000000000 ) ) ;
#304 = COLOUR_RGB ( '',0.7960784313725489700, 0.8235294117647058400, 0.9372549019607843100 ) ;
#305 = SURFACE_STYLE_FILL_AREA ( #292 ) ;
#306 = SURFACE_STYLE_USAGE ( .BOTH. , #307 ) ;
#307 = SURFACE_SIDE_STYLE ('',( #305 ) ) ;
#308 = AXIS2_PLACEMENT_3D ( 'NONE', #302, #301, #303 ) ;
#309 =( GEOMETRIC_REPRESENTATION_CONTEXT ( 3 ) GLOBAL_UNCERTAINTY_ASSIGNED_CONTEXT ( ( #300 ) ) GLOBAL_UNIT_ASSIGNED_CONTEXT ( ( #294, #310, #296 ) ) REPRESENTATION_CONTEXT ( 'NONE', 'WORKASPACE' ) );
#310 =( NAMED_UNIT ( * ) PLANE_ANGLE_UNIT ( ) SI_UNIT ( $, .RADIAN. ) );
#311 = APPLICATION_CONTEXT ( 'automotive_design' ) ;
#312 = PRODUCT_DEFINITION_SHAPE ( 'NONE', 'NONE',  #321 ) ;
#313 = PRODUCT_CONTEXT ( 'NONE', #311, 'mechanical' ) ;
#314 = APPLICATION_PROTOCOL_DEFINITION ( 'draft international standard', 'automotive_design', 1998, #311 ) ;
#315 = SHAPE_DEFINITION_REPRESENTATION ( #312, #26 ) ;
#316 = PRODUCT_DEFINITION_CONTEXT ( 'detailed design', #319, 'design' ) ;
#317 = APPLICATION_PROTOCOL_DEFINITION ( 'draft international standard', 'automotive_design', 1998, #319 ) ;
#318 = PRODUCT ( '3476-E0W', '3476-E0W', '', ( #313 ) ) ;
#319 = APPLICATION_CONTEXT ( 'automotive_design' ) ;
#320 = PRODUCT_DEFINITION_FORMATION_WITH_SPECIFIED_SOURCE ( 'ANY', '', #318, .NOT_KNOWN. ) ;
#321 = PRODUCT_DEFINITION ( 'UNKNOWN', '', #320, #316 ) ;
#322 = PRODUCT_RELATED_PRODUCT_CATEGORY ( 'part', '', ( #318 ) ) ;
ENDSEC;
END-ISO-10303-21;
