ISO-10303-21;
HEADER;
FILE_DESCRIPTION (( 'STEP AP203' ),
    '1' );
FILE_NAME ('Web Model 89569.STEP',
    '2017-02-01T16:31:31',
    ( '' ),
    ( '' ),
    'SwSTEP 2.0',
    'SolidWorks 2016',
    '' );
FILE_SCHEMA (( 'CONFIG_CONTROL_DESIGN' ));
ENDSEC;

DATA;
#1 = COORDINATED_UNIVERSAL_TIME_OFFSET ( 5, 0, .BEHIND. ) ;
#2 = CARTESIAN_POINT ( 'NONE',  ( 0.0000000000000000000, 0.0000000000000000000, 0.0000000000000000000 ) ) ;
#3 = PERSON_AND_ORGANIZATION ( #131, #19 ) ;
#4 = CC_DESIGN_SECURITY_CLASSIFICATION ( #171, ( #105 ) ) ;
#5 = ORIENTED_EDGE ( 'NONE', *, *, #142, .T. ) ;
#6 = ORIENTED_EDGE ( 'NONE', *, *, #96, .T. ) ;
#7 = FACE_OUTER_BOUND ( 'NONE', #57, .T. ) ;
#8 = AXIS2_PLACEMENT_3D ( 'NONE', #66, #28, #162 ) ;
#9 = ORIENTED_EDGE ( 'NONE', *, *, #45, .F. ) ;
#10 = CARTESIAN_POINT ( 'NONE',  ( 2.000000000000000000, 3.061616997868383000E-015, -25.00000000000000000 ) ) ;
#11 = CYLINDRICAL_SURFACE ( 'NONE', #27, 25.00000000000000000 ) ;
#12 = PLANE ( 'NONE',  #125 ) ;
#13 = APPROVAL_PERSON_ORGANIZATION ( #108, #153, #86 ) ;
#14 = APPLICATION_CONTEXT ( 'configuration controlled 3d designs of mechanical parts and assemblies' ) ;
#15 = PERSON_AND_ORGANIZATION_ROLE ( 'design_supplier' ) ;
#16 =( GEOMETRIC_REPRESENTATION_CONTEXT ( 3 ) GLOBAL_UNCERTAINTY_ASSIGNED_CONTEXT ( ( #95 ) ) GLOBAL_UNIT_ASSIGNED_CONTEXT ( ( #56, #137, #103 ) ) REPRESENTATION_CONTEXT ( 'NONE', 'WORKASPACE' ) );
#17 = CALENDAR_DATE ( 2017, 1, 2 ) ;
#18 = ORIENTED_EDGE ( 'NONE', *, *, #116, .F. ) ;
#19 = ORGANIZATION ( 'UNSPECIFIED', 'UNSPECIFIED', '' ) ;
#20 = DIRECTION ( 'NONE',  ( -1.000000000000000000, -0.0000000000000000000, -0.0000000000000000000 ) ) ;
#21 = COORDINATED_UNIVERSAL_TIME_OFFSET ( 5, 0, .BEHIND. ) ;
#22 = COORDINATED_UNIVERSAL_TIME_OFFSET ( 5, 0, .BEHIND. ) ;
#23 = CARTESIAN_POINT ( 'NONE',  ( 0.0000000000000000000, 0.0000000000000000000, 0.0000000000000000000 ) ) ;
#24 = PERSON_AND_ORGANIZATION_ROLE ( 'design_owner' ) ;
#25 = APPLICATION_CONTEXT ( 'configuration controlled 3d designs of mechanical parts and assemblies' ) ;
#26 = EDGE_LOOP ( 'NONE', ( #119, #9, #42, #102 ) ) ;
#27 = AXIS2_PLACEMENT_3D ( 'NONE', #135, #123, #33 ) ;
#28 = DIRECTION ( 'NONE',  ( 1.000000000000000000, 0.0000000000000000000, 0.0000000000000000000 ) ) ;
#29 = LOCAL_TIME ( 11, 31, 31.00000000000000000, #1 ) ;
#30 = LOCAL_TIME ( 11, 31, 31.00000000000000000, #111 ) ;
#31 = EDGE_LOOP ( 'NONE', ( #78, #5 ) ) ;
#32 = DATE_AND_TIME ( #17, #55 ) ;
#33 = DIRECTION ( 'NONE',  ( 0.0000000000000000000, 0.0000000000000000000, 1.000000000000000000 ) ) ;
#34 = PLANE ( 'NONE',  #8 ) ;
#35 = LOCAL_TIME ( 11, 31, 31.00000000000000000, #21 ) ;
#36 = CIRCLE ( 'NONE', #40, 25.00000000000000000 ) ;
#37 = APPROVAL_DATE_TIME ( #120, #155 ) ;
#38 = MECHANICAL_CONTEXT ( 'NONE', #25, 'mechanical' ) ;
#39 = APPROVAL_ROLE ( '' ) ;
#40 = AXIS2_PLACEMENT_3D ( 'NONE', #48, #146, #76 ) ;
#41 = SHAPE_DEFINITION_REPRESENTATION ( #109, #92 ) ;
#42 = ORIENTED_EDGE ( 'NONE', *, *, #116, .T. ) ;
#43 = VECTOR ( 'NONE', #156, 1000.000000000000000 ) ;
#44 = AXIS2_PLACEMENT_3D ( 'NONE', #114, #172, #49 ) ;
#45 = EDGE_CURVE ( 'NONE', #154, #127, #65, .T. ) ;
#46 = CARTESIAN_POINT ( 'NONE',  ( 2.000000000000000000, 0.0000000000000000000, 0.0000000000000000000 ) ) ;
#47 = CC_DESIGN_PERSON_AND_ORGANIZATION_ASSIGNMENT ( #144, #24, ( #80 ) ) ;
#48 = CARTESIAN_POINT ( 'NONE',  ( 0.0000000000000000000, 0.0000000000000000000, 0.0000000000000000000 ) ) ;
#49 = DIRECTION ( 'NONE',  ( 0.0000000000000000000, 0.0000000000000000000, -1.000000000000000000 ) ) ;
#50 = VERTEX_POINT ( 'NONE', #97 ) ;
#51 = DIRECTION ( 'NONE',  ( 0.0000000000000000000, 0.0000000000000000000, 1.000000000000000000 ) ) ;
#52 = ADVANCED_FACE ( 'NONE', ( #173 ), #11, .T. ) ;
#53 = DIRECTION ( 'NONE',  ( 1.000000000000000000, 0.0000000000000000000, 0.0000000000000000000 ) ) ;
#54 = ORIENTED_EDGE ( 'NONE', *, *, #132, .F. ) ;
#55 = LOCAL_TIME ( 11, 31, 31.00000000000000000, #22 ) ;
#56 =( LENGTH_UNIT ( ) NAMED_UNIT ( * ) SI_UNIT ( .MILLI., .METRE. ) );
#57 = EDGE_LOOP ( 'NONE', ( #166, #6, #61, #18 ) ) ;
#58 = DESIGN_CONTEXT ( 'detailed design', #14, 'design' ) ;
#59 = CALENDAR_DATE ( 2017, 1, 2 ) ;
#60 = CC_DESIGN_PERSON_AND_ORGANIZATION_ASSIGNMENT ( #145, #73, ( #121 ) ) ;
#61 = ORIENTED_EDGE ( 'NONE', *, *, #132, .T. ) ;
#62 = DATE_AND_TIME ( #143, #169 ) ;
#63 = DIRECTION ( 'NONE',  ( -1.000000000000000000, -0.0000000000000000000, -0.0000000000000000000 ) ) ;
#64 = APPROVAL_PERSON_ORGANIZATION ( #133, #77, #39 ) ;
#65 = CIRCLE ( 'NONE', #44, 25.00000000000000000 ) ;
#66 = CARTESIAN_POINT ( 'NONE',  ( 0.0000000000000000000, 0.0000000000000000000, 0.0000000000000000000 ) ) ;
#67 = CLOSED_SHELL ( 'NONE', ( #101, #52, #75, #138 ) ) ;
#68 = DIRECTION ( 'NONE',  ( 1.000000000000000000, 0.0000000000000000000, 0.0000000000000000000 ) ) ;
#69 = DATE_AND_TIME ( #59, #35 ) ;
#70 = APPROVAL_PERSON_ORGANIZATION ( #113, #155, #104 ) ;
#71 = PERSON_AND_ORGANIZATION_ROLE ( 'classification_officer' ) ;
#72 = CC_DESIGN_DATE_AND_TIME_ASSIGNMENT ( #139, #126, ( #121 ) ) ;
#73 = PERSON_AND_ORGANIZATION_ROLE ( 'creator' ) ;
#74 = APPLICATION_PROTOCOL_DEFINITION ( 'international standard', 'config_control_design', 1994, #25 ) ;
#75 = ADVANCED_FACE ( 'NONE', ( #88 ), #12, .T. ) ;
#76 = DIRECTION ( 'NONE',  ( 0.0000000000000000000, 0.0000000000000000000, -1.000000000000000000 ) ) ;
#77 = APPROVAL ( #100, 'UNSPECIFIED' ) ;
#78 = ORIENTED_EDGE ( 'NONE', *, *, #45, .T. ) ;
#79 = DIRECTION ( 'NONE',  ( 0.0000000000000000000, 0.0000000000000000000, -1.000000000000000000 ) ) ;
#80 = PRODUCT ( 'Web Model 89569', 'Web Model 89569', '', ( #38 ) ) ;
#81 = DIRECTION ( 'NONE',  ( 1.000000000000000000, 0.0000000000000000000, 0.0000000000000000000 ) ) ;
#82 = CC_DESIGN_APPROVAL ( #155, ( #121 ) ) ;
#83 = CIRCLE ( 'NONE', #130, 25.00000000000000000 ) ;
#84 = EDGE_CURVE ( 'NONE', #128, #50, #83, .T. ) ;
#85 = CARTESIAN_POINT ( 'NONE',  ( 2.000000000000000000, 0.0000000000000000000, 0.0000000000000000000 ) ) ;
#86 = APPROVAL_ROLE ( '' ) ;
#87 = DIRECTION ( 'NONE',  ( 1.000000000000000000, 0.0000000000000000000, 0.0000000000000000000 ) ) ;
#88 = FACE_OUTER_BOUND ( 'NONE', #31, .T. ) ;
#89 = APPROVAL_STATUS ( 'not_yet_approved' ) ;
#90 = MANIFOLD_SOLID_BREP ( 'Extrude1', #67 ) ;
#91 = CC_DESIGN_APPROVAL ( #77, ( #105 ) ) ;
#92 = ADVANCED_BREP_SHAPE_REPRESENTATION ( 'Web Model 89569', ( #90, #140 ), #16 ) ;
#93 = CIRCLE ( 'NONE', #164, 25.00000000000000000 ) ;
#94 = PERSON_AND_ORGANIZATION ( #131, #19 ) ;
#95 = UNCERTAINTY_MEASURE_WITH_UNIT (LENGTH_MEASURE( 1.000000000000000100E-005 ), #56, 'distance_accuracy_value', 'NONE');
#96 = EDGE_CURVE ( 'NONE', #127, #50, #158, .T. ) ;
#97 = CARTESIAN_POINT ( 'NONE',  ( 0.0000000000000000000, 3.061616997868383000E-015, -25.00000000000000000 ) ) ;
#98 = LINE ( 'NONE', #147, #43 ) ;
#99 = CC_DESIGN_APPROVAL ( #153, ( #171 ) ) ;
#100 = APPROVAL_STATUS ( 'not_yet_approved' ) ;
#101 = ADVANCED_FACE ( 'NONE', ( #7 ), #150, .T. ) ;
#102 = ORIENTED_EDGE ( 'NONE', *, *, #84, .T. ) ;
#103 =( NAMED_UNIT ( * ) SI_UNIT ( $, .STERADIAN. ) SOLID_ANGLE_UNIT ( ) );
#104 = APPROVAL_ROLE ( '' ) ;
#105 = PRODUCT_DEFINITION_FORMATION_WITH_SPECIFIED_SOURCE ( 'ANY', '', #80, .NOT_KNOWN. ) ;
#106 = COORDINATED_UNIVERSAL_TIME_OFFSET ( 5, 0, .BEHIND. ) ;
#107 = CALENDAR_DATE ( 2017, 1, 2 ) ;
#108 = PERSON_AND_ORGANIZATION ( #131, #19 ) ;
#109 = PRODUCT_DEFINITION_SHAPE ( 'NONE', 'NONE',  #121 ) ;
#110 = APPROVAL_DATE_TIME ( #32, #77 ) ;
#111 = COORDINATED_UNIVERSAL_TIME_OFFSET ( 5, 0, .BEHIND. ) ;
#112 = DIRECTION ( 'NONE',  ( 0.0000000000000000000, 0.0000000000000000000, -1.000000000000000000 ) ) ;
#113 = PERSON_AND_ORGANIZATION ( #131, #19 ) ;
#114 = CARTESIAN_POINT ( 'NONE',  ( 2.000000000000000000, 0.0000000000000000000, 0.0000000000000000000 ) ) ;
#115 = APPROVAL_STATUS ( 'not_yet_approved' ) ;
#116 = EDGE_CURVE ( 'NONE', #154, #128, #98, .T. ) ;
#117 = SECURITY_CLASSIFICATION_LEVEL ( 'unclassified' ) ;
#118 = ORIENTED_EDGE ( 'NONE', *, *, #84, .F. ) ;
#119 = ORIENTED_EDGE ( 'NONE', *, *, #96, .F. ) ;
#120 = DATE_AND_TIME ( #107, #29 ) ;
#121 = PRODUCT_DEFINITION ( 'UNKNOWN', '', #105, #58 ) ;
#122 = CARTESIAN_POINT ( 'NONE',  ( 0.0000000000000000000, 0.0000000000000000000, 25.00000000000000000 ) ) ;
#123 = DIRECTION ( 'NONE',  ( -1.000000000000000000, -0.0000000000000000000, -0.0000000000000000000 ) ) ;
#124 = CARTESIAN_POINT ( 'NONE',  ( 2.000000000000000000, 0.0000000000000000000, 0.0000000000000000000 ) ) ;
#125 = AXIS2_PLACEMENT_3D ( 'NONE', #85, #81, #79 ) ;
#126 = DATE_TIME_ROLE ( 'creation_date' ) ;
#127 = VERTEX_POINT ( 'NONE', #10 ) ;
#128 = VERTEX_POINT ( 'NONE', #122 ) ;
#129 = FACE_OUTER_BOUND ( 'NONE', #149, .T. ) ;
#130 = AXIS2_PLACEMENT_3D ( 'NONE', #23, #68, #112 ) ;
#131 = PERSON ( 'UNSPECIFIED', 'UNSPECIFIED', 'UNSPECIFIED', ('UNSPECIFIED'), ('UNSPECIFIED'), ('UNSPECIFIED') ) ;
#132 = EDGE_CURVE ( 'NONE', #50, #128, #36, .T. ) ;
#133 = PERSON_AND_ORGANIZATION ( #131, #19 ) ;
#134 = APPROVAL_DATE_TIME ( #69, #153 ) ;
#135 = CARTESIAN_POINT ( 'NONE',  ( 2.000000000000000000, 0.0000000000000000000, 0.0000000000000000000 ) ) ;
#136 = CARTESIAN_POINT ( 'NONE',  ( 2.000000000000000000, 3.061616997868383000E-015, -25.00000000000000000 ) ) ;
#137 =( NAMED_UNIT ( * ) PLANE_ANGLE_UNIT ( ) SI_UNIT ( $, .RADIAN. ) );
#138 = ADVANCED_FACE ( 'NONE', ( #129 ), #34, .F. ) ;
#139 = DATE_AND_TIME ( #170, #30 ) ;
#140 = AXIS2_PLACEMENT_3D ( 'NONE', #2, #51, #87 ) ;
#141 = DATE_TIME_ROLE ( 'classification_date' ) ;
#142 = EDGE_CURVE ( 'NONE', #127, #154, #93, .T. ) ;
#143 = CALENDAR_DATE ( 2017, 1, 2 ) ;
#144 = PERSON_AND_ORGANIZATION ( #131, #19 ) ;
#145 = PERSON_AND_ORGANIZATION ( #131, #19 ) ;
#146 = DIRECTION ( 'NONE',  ( 1.000000000000000000, 0.0000000000000000000, 0.0000000000000000000 ) ) ;
#147 = CARTESIAN_POINT ( 'NONE',  ( 2.000000000000000000, 0.0000000000000000000, 25.00000000000000000 ) ) ;
#148 = PERSON_AND_ORGANIZATION_ROLE ( 'creator' ) ;
#149 = EDGE_LOOP ( 'NONE', ( #118, #54 ) ) ;
#150 = CYLINDRICAL_SURFACE ( 'NONE', #152, 25.00000000000000000 ) ;
#151 = VECTOR ( 'NONE', #63, 1000.000000000000000 ) ;
#152 = AXIS2_PLACEMENT_3D ( 'NONE', #46, #20, #174 ) ;
#153 = APPROVAL ( #89, 'UNSPECIFIED' ) ;
#154 = VERTEX_POINT ( 'NONE', #163 ) ;
#155 = APPROVAL ( #115, 'UNSPECIFIED' ) ;
#156 = DIRECTION ( 'NONE',  ( -1.000000000000000000, -0.0000000000000000000, -0.0000000000000000000 ) ) ;
#157 = CC_DESIGN_PERSON_AND_ORGANIZATION_ASSIGNMENT ( #3, #148, ( #105 ) ) ;
#158 = LINE ( 'NONE', #136, #151 ) ;
#159 = CC_DESIGN_PERSON_AND_ORGANIZATION_ASSIGNMENT ( #94, #15, ( #105 ) ) ;
#160 = CC_DESIGN_DATE_AND_TIME_ASSIGNMENT ( #62, #141, ( #171 ) ) ;
#161 = DIRECTION ( 'NONE',  ( 0.0000000000000000000, 0.0000000000000000000, -1.000000000000000000 ) ) ;
#162 = DIRECTION ( 'NONE',  ( 0.0000000000000000000, 0.0000000000000000000, -1.000000000000000000 ) ) ;
#163 = CARTESIAN_POINT ( 'NONE',  ( 2.000000000000000000, 0.0000000000000000000, 25.00000000000000000 ) ) ;
#164 = AXIS2_PLACEMENT_3D ( 'NONE', #124, #53, #161 ) ;
#165 = PERSON_AND_ORGANIZATION ( #131, #19 ) ;
#166 = ORIENTED_EDGE ( 'NONE', *, *, #142, .F. ) ;
#167 = CC_DESIGN_PERSON_AND_ORGANIZATION_ASSIGNMENT ( #165, #71, ( #171 ) ) ;
#168 = PRODUCT_RELATED_PRODUCT_CATEGORY ( 'detail', '', ( #80 ) ) ;
#169 = LOCAL_TIME ( 11, 31, 31.00000000000000000, #106 ) ;
#170 = CALENDAR_DATE ( 2017, 1, 2 ) ;
#171 = SECURITY_CLASSIFICATION ( '', '', #117 ) ;
#172 = DIRECTION ( 'NONE',  ( 1.000000000000000000, 0.0000000000000000000, 0.0000000000000000000 ) ) ;
#173 = FACE_OUTER_BOUND ( 'NONE', #26, .T. ) ;
#174 = DIRECTION ( 'NONE',  ( 0.0000000000000000000, 0.0000000000000000000, 1.000000000000000000 ) ) ;
#175 = APPLICATION_PROTOCOL_DEFINITION ( 'international standard', 'config_control_design', 1994, #14 ) ;
ENDSEC;
END-ISO-10303-21;
