ISO-10303-21;
HEADER;
FILE_DESCRIPTION (( 'STEP AP203' ),
    '1' );
FILE_NAME ('Web Model Lightsmyth Gratings_16876.step',
    '2021-03-11T20:50:44',
    ( '' ),
    ( '' ),
    'SwSTEP 2.0',
    'SolidWorks 2018',
    '' );
FILE_SCHEMA (( 'CONFIG_CONTROL_DESIGN' ));
ENDSEC;

DATA;
#1 = CALENDAR_DATE ( 2021, 11, 3 ) ;
#2 = EDGE_CURVE ( 'NONE', #196, #55, #97, .T. ) ;
#3 = ORIENTED_EDGE ( 'NONE', *, *, #7, .F. ) ;
#4 = ORIENTED_EDGE ( 'NONE', *, *, #136, .T. ) ;
#5 = CARTESIAN_POINT ( 'NONE',  ( -15.89999999999999680, -6.149999999999999467, 0.0000000000000000000 ) ) ;
#6 = PERSON_AND_ORGANIZATION ( #109, #113 ) ;
#7 = EDGE_CURVE ( 'NONE', #149, #171, #41, .T. ) ;
#8 = CARTESIAN_POINT ( 'NONE',  ( 15.90000000000000391, -6.149999999999999467, 0.9499999999999999556 ) ) ;
#9 = ORIENTED_EDGE ( 'NONE', *, *, #179, .F. ) ;
#10 = ORIENTED_EDGE ( 'NONE', *, *, #142, .T. ) ;
#11 = DIRECTION ( 'NONE',  ( -0.0000000000000000000, -1.000000000000000000, -0.0000000000000000000 ) ) ;
#12 = EDGE_CURVE ( 'NONE', #55, #171, #98, .T. ) ;
#13 = CARTESIAN_POINT ( 'NONE',  ( 15.90000000000000391, -6.149999999999999467, 0.9499999999999999556 ) ) ;
#14 = FACE_OUTER_BOUND ( 'NONE', #69, .T. ) ;
#15 = PERSON_AND_ORGANIZATION ( #109, #113 ) ;
#16 = APPROVAL_ROLE ( '' ) ;
#17 = CC_DESIGN_PERSON_AND_ORGANIZATION_ASSIGNMENT ( #95, #160, ( #40 ) ) ;
#18 =( NAMED_UNIT ( * ) PLANE_ANGLE_UNIT ( ) SI_UNIT ( $, .RADIAN. ) );
#19 = ORIENTED_EDGE ( 'NONE', *, *, #2, .T. ) ;
#20 = PERSON_AND_ORGANIZATION_ROLE ( 'creator' ) ;
#21 = PERSON_AND_ORGANIZATION_ROLE ( 'design_owner' ) ;
#22 = CC_DESIGN_APPROVAL ( #110, ( #40 ) ) ;
#23 = COORDINATED_UNIVERSAL_TIME_OFFSET ( 5, 0, .BEHIND. ) ;
#24 = LINE ( 'NONE', #123, #172 ) ;
#25 = ORIENTED_EDGE ( 'NONE', *, *, #36, .T. ) ;
#26 = DATE_AND_TIME ( #1, #45 ) ;
#27 = CC_DESIGN_DATE_AND_TIME_ASSIGNMENT ( #82, #232, ( #34 ) ) ;
#28 = EDGE_LOOP ( 'NONE', ( #187, #52, #180, #25 ) ) ;
#29 = PLANE ( 'NONE',  #47 ) ;
#30 = PLANE ( 'NONE',  #163 ) ;
#31 = APPLICATION_CONTEXT ( 'configuration controlled 3d designs of mechanical parts and assemblies' ) ;
#32 = PERSON_AND_ORGANIZATION_ROLE ( 'design_supplier' ) ;
#33 = PRODUCT_DEFINITION_SHAPE ( 'NONE', 'NONE',  #34 ) ;
#34 = PRODUCT_DEFINITION ( 'UNKNOWN', '', #40, #64 ) ;
#35 = ORIENTED_EDGE ( 'NONE', *, *, #38, .T. ) ;
#36 = EDGE_CURVE ( 'NONE', #175, #149, #71, .T. ) ;
#37 = DIRECTION ( 'NONE',  ( 0.0000000000000000000, 1.000000000000000000, 0.0000000000000000000 ) ) ;
#38 = EDGE_CURVE ( 'NONE', #171, #112, #144, .T. ) ;
#39 = APPROVAL_PERSON_ORGANIZATION ( #167, #189, #237 ) ;
#40 = PRODUCT_DEFINITION_FORMATION_WITH_SPECIFIED_SOURCE ( 'ANY', '', #233, .NOT_KNOWN. ) ;
#41 = LINE ( 'NONE', #8, #105 ) ;
#42 = ORIENTED_EDGE ( 'NONE', *, *, #202, .T. ) ;
#43 = PLANE ( 'NONE',  #107 ) ;
#44 = CARTESIAN_POINT ( 'NONE',  ( 15.90000000000000391, 6.150000000000001243, 0.9499999999999999556 ) ) ;
#45 = LOCAL_TIME ( 15, 50, 44.00000000000000000, #204 ) ;
#46 = FACE_OUTER_BOUND ( 'NONE', #94, .T. ) ;
#47 = AXIS2_PLACEMENT_3D ( 'NONE', #157, #173, #66 ) ;
#48 = VECTOR ( 'NONE', #100, 1000.000000000000000 ) ;
#49 = DIRECTION ( 'NONE',  ( 0.0000000000000000000, -1.000000000000000000, 0.0000000000000000000 ) ) ;
#50 = CALENDAR_DATE ( 2021, 11, 3 ) ;
#51 = PRODUCT_RELATED_PRODUCT_CATEGORY ( 'detail', '', ( #233 ) ) ;
#52 = ORIENTED_EDGE ( 'NONE', *, *, #179, .T. ) ;
#53 = EDGE_LOOP ( 'NONE', ( #229, #156, #184, #76 ) ) ;
#54 = AXIS2_PLACEMENT_3D ( 'NONE', #132, #57, #58 ) ;
#55 = VERTEX_POINT ( 'NONE', #224 ) ;
#56 = FACE_OUTER_BOUND ( 'NONE', #28, .T. ) ;
#57 = DIRECTION ( 'NONE',  ( -1.000000000000000000, 0.0000000000000000000, 0.0000000000000000000 ) ) ;
#58 = DIRECTION ( 'NONE',  ( 0.0000000000000000000, 0.0000000000000000000, 1.000000000000000000 ) ) ;
#59 = ADVANCED_FACE ( 'NONE', ( #46 ), #63, .F. ) ;
#60 = VECTOR ( 'NONE', #168, 1000.000000000000000 ) ;
#61 = PERSON_AND_ORGANIZATION ( #109, #113 ) ;
#62 = ADVANCED_FACE ( 'NONE', ( #14 ), #96, .F. ) ;
#63 = PLANE ( 'NONE',  #54 ) ;
#64 = DESIGN_CONTEXT ( 'detailed design', #104, 'design' ) ;
#65 = CARTESIAN_POINT ( 'NONE',  ( -15.89999999999999680, -6.149999999999999467, 0.9499999999999999556 ) ) ;
#66 = DIRECTION ( 'NONE',  ( 0.0000000000000000000, 0.0000000000000000000, -1.000000000000000000 ) ) ;
#67 = VECTOR ( 'NONE', #120, 1000.000000000000000 ) ;
#68 = APPROVAL_PERSON_ORGANIZATION ( #6, #110, #16 ) ;
#69 = EDGE_LOOP ( 'NONE', ( #195, #3, #117, #42 ) ) ;
#70 = LOCAL_TIME ( 15, 50, 44.00000000000000000, #73 ) ;
#71 = LINE ( 'NONE', #226, #207 ) ;
#72 =( GEOMETRIC_REPRESENTATION_CONTEXT ( 3 ) GLOBAL_UNCERTAINTY_ASSIGNED_CONTEXT ( ( #115 ) ) GLOBAL_UNIT_ASSIGNED_CONTEXT ( ( #178, #18, #141 ) ) REPRESENTATION_CONTEXT ( 'NONE', 'WORKASPACE' ) );
#73 = COORDINATED_UNIVERSAL_TIME_OFFSET ( 5, 0, .BEHIND. ) ;
#74 = APPROVAL_DATE_TIME ( #101, #148 ) ;
#75 = CC_DESIGN_SECURITY_CLASSIFICATION ( #129, ( #40 ) ) ;
#76 = ORIENTED_EDGE ( 'NONE', *, *, #219, .F. ) ;
#77 = LOCAL_TIME ( 15, 50, 44.00000000000000000, #23 ) ;
#78 = AXIS2_PLACEMENT_3D ( 'NONE', #88, #177, #214 ) ;
#79 = ADVANCED_BREP_SHAPE_REPRESENTATION ( 'Web Model Lightsmyth Gratings_16876', ( #146, #78 ), #72 ) ;
#80 = DIRECTION ( 'NONE',  ( 0.0000000000000000000, 1.000000000000000000, 0.0000000000000000000 ) ) ;
#81 = CARTESIAN_POINT ( 'NONE',  ( -15.89999999999999680, -6.149999999999999467, 0.9499999999999999556 ) ) ;
#82 = DATE_AND_TIME ( #50, #70 ) ;
#83 = DIRECTION ( 'NONE',  ( -0.0000000000000000000, -0.0000000000000000000, -1.000000000000000000 ) ) ;
#84 = CARTESIAN_POINT ( 'NONE',  ( 0.0000000000000000000, 0.0000000000000000000, 0.9499999999999999556 ) ) ;
#85 = CARTESIAN_POINT ( 'NONE',  ( 0.0000000000000000000, 0.0000000000000000000, 0.0000000000000000000 ) ) ;
#86 = CALENDAR_DATE ( 2021, 11, 3 ) ;
#87 = MECHANICAL_CONTEXT ( 'NONE', #31, 'mechanical' ) ;
#88 = CARTESIAN_POINT ( 'NONE',  ( 0.0000000000000000000, 0.0000000000000000000, 0.0000000000000000000 ) ) ;
#89 = ORIENTED_EDGE ( 'NONE', *, *, #219, .T. ) ;
#90 = CLOSED_SHELL ( 'NONE', ( #59, #225, #203, #62, #223, #155 ) ) ;
#91 = CC_DESIGN_PERSON_AND_ORGANIZATION_ASSIGNMENT ( #15, #21, ( #233 ) ) ;
#92 = PERSON_AND_ORGANIZATION ( #109, #113 ) ;
#93 = VECTOR ( 'NONE', #228, 1000.000000000000000 ) ;
#94 = EDGE_LOOP ( 'NONE', ( #35, #215, #221, #127 ) ) ;
#95 = PERSON_AND_ORGANIZATION ( #109, #113 ) ;
#96 = PLANE ( 'NONE',  #165 ) ;
#97 = LINE ( 'NONE', #131, #60 ) ;
#98 = LINE ( 'NONE', #5, #93 ) ;
#99 = DIRECTION ( 'NONE',  ( 0.0000000000000000000, -0.0000000000000000000, 1.000000000000000000 ) ) ;
#100 = DIRECTION ( 'NONE',  ( 0.0000000000000000000, 1.000000000000000000, 0.0000000000000000000 ) ) ;
#101 = DATE_AND_TIME ( #139, #199 ) ;
#102 = DIRECTION ( 'NONE',  ( -1.000000000000000000, 0.0000000000000000000, -0.0000000000000000000 ) ) ;
#103 = DIRECTION ( 'NONE',  ( -1.000000000000000000, 0.0000000000000000000, -0.0000000000000000000 ) ) ;
#104 = APPLICATION_CONTEXT ( 'configuration controlled 3d designs of mechanical parts and assemblies' ) ;
#105 = VECTOR ( 'NONE', #152, 1000.000000000000000 ) ;
#106 = LINE ( 'NONE', #65, #145 ) ;
#107 = AXIS2_PLACEMENT_3D ( 'NONE', #159, #49, #161 ) ;
#108 = LINE ( 'NONE', #170, #198 ) ;
#109 = PERSON ( 'UNSPECIFIED', 'UNSPECIFIED', 'UNSPECIFIED', ('UNSPECIFIED'), ('UNSPECIFIED'), ('UNSPECIFIED') ) ;
#110 = APPROVAL ( #143, 'UNSPECIFIED' ) ;
#111 = APPROVAL_PERSON_ORGANIZATION ( #61, #148, #125 ) ;
#112 = VERTEX_POINT ( 'NONE', #190 ) ;
#113 = ORGANIZATION ( 'UNSPECIFIED', 'UNSPECIFIED', '' ) ;
#114 = CC_DESIGN_PERSON_AND_ORGANIZATION_ASSIGNMENT ( #217, #162, ( #129 ) ) ;
#115 = UNCERTAINTY_MEASURE_WITH_UNIT (LENGTH_MEASURE( 1.000000000000000082E-05 ), #178, 'distance_accuracy_value', 'NONE');
#116 = CARTESIAN_POINT ( 'NONE',  ( 15.90000000000000391, -6.149999999999999467, 0.0000000000000000000 ) ) ;
#117 = ORIENTED_EDGE ( 'NONE', *, *, #36, .F. ) ;
#118 = CARTESIAN_POINT ( 'NONE',  ( 15.90000000000000391, -6.149999999999999467, 0.0000000000000000000 ) ) ;
#119 = CC_DESIGN_PERSON_AND_ORGANIZATION_ASSIGNMENT ( #92, #32, ( #40 ) ) ;
#120 = DIRECTION ( 'NONE',  ( -0.0000000000000000000, -0.0000000000000000000, -1.000000000000000000 ) ) ;
#121 = CARTESIAN_POINT ( 'NONE',  ( -15.89999999999999680, 6.150000000000001243, 0.0000000000000000000 ) ) ;
#122 = FACE_OUTER_BOUND ( 'NONE', #130, .T. ) ;
#123 = CARTESIAN_POINT ( 'NONE',  ( -15.89999999999999680, 6.150000000000001243, 0.0000000000000000000 ) ) ;
#124 = CC_DESIGN_DATE_AND_TIME_ASSIGNMENT ( #26, #212, ( #129 ) ) ;
#125 = APPROVAL_ROLE ( '' ) ;
#126 = APPROVAL_STATUS ( 'not_yet_approved' ) ;
#127 = ORIENTED_EDGE ( 'NONE', *, *, #7, .T. ) ;
#128 = SHAPE_DEFINITION_REPRESENTATION ( #33, #79 ) ;
#129 = SECURITY_CLASSIFICATION ( '', '', #140 ) ;
#130 = EDGE_LOOP ( 'NONE', ( #19, #218, #137, #10 ) ) ;
#131 = CARTESIAN_POINT ( 'NONE',  ( -15.89999999999999680, -6.149999999999999467, 0.0000000000000000000 ) ) ;
#132 = CARTESIAN_POINT ( 'NONE',  ( 15.90000000000000391, -6.149999999999999467, 0.9499999999999999556 ) ) ;
#133 = LOCAL_TIME ( 15, 50, 44.00000000000000000, #231 ) ;
#134 = CARTESIAN_POINT ( 'NONE',  ( -15.89999999999999680, -6.149999999999999467, 0.9499999999999999556 ) ) ;
#135 = VECTOR ( 'NONE', #80, 1000.000000000000000 ) ;
#136 = EDGE_CURVE ( 'NONE', #153, #112, #166, .T. ) ;
#137 = ORIENTED_EDGE ( 'NONE', *, *, #183, .F. ) ;
#138 = DIRECTION ( 'NONE',  ( -1.000000000000000000, -0.0000000000000000000, -0.0000000000000000000 ) ) ;
#139 = CALENDAR_DATE ( 2021, 11, 3 ) ;
#140 = SECURITY_CLASSIFICATION_LEVEL ( 'unclassified' ) ;
#141 =( NAMED_UNIT ( * ) SI_UNIT ( $, .STERADIAN. ) SOLID_ANGLE_UNIT ( ) );
#142 = EDGE_CURVE ( 'NONE', #200, #196, #164, .T. ) ;
#143 = APPROVAL_STATUS ( 'not_yet_approved' ) ;
#144 = LINE ( 'NONE', #116, #135 ) ;
#145 = VECTOR ( 'NONE', #11, 1000.000000000000000 ) ;
#146 = MANIFOLD_SOLID_BREP ( 'Boss-Extrude1', #90 ) ;
#147 = APPROVAL_DATE_TIME ( #192, #110 ) ;
#148 = APPROVAL ( #197, 'UNSPECIFIED' ) ;
#149 = VERTEX_POINT ( 'NONE', #13 ) ;
#150 = ORIENTED_EDGE ( 'NONE', *, *, #142, .F. ) ;
#151 = EDGE_CURVE ( 'NONE', #149, #153, #158, .T. ) ;
#152 = DIRECTION ( 'NONE',  ( -0.0000000000000000000, -0.0000000000000000000, -1.000000000000000000 ) ) ;
#153 = VERTEX_POINT ( 'NONE', #193 ) ;
#154 = CC_DESIGN_APPROVAL ( #189, ( #129 ) ) ;
#155 = ADVANCED_FACE ( 'NONE', ( #188 ), #174, .T. ) ;
#156 = ORIENTED_EDGE ( 'NONE', *, *, #12, .F. ) ;
#157 = CARTESIAN_POINT ( 'NONE',  ( -15.89999999999999680, -6.149999999999999467, 0.9499999999999999556 ) ) ;
#158 = LINE ( 'NONE', #209, #48 ) ;
#159 = CARTESIAN_POINT ( 'NONE',  ( -15.89999999999999680, 6.150000000000001243, 0.9499999999999999556 ) ) ;
#160 = PERSON_AND_ORGANIZATION_ROLE ( 'creator' ) ;
#161 = DIRECTION ( 'NONE',  ( 0.0000000000000000000, -0.0000000000000000000, -1.000000000000000000 ) ) ;
#162 = PERSON_AND_ORGANIZATION_ROLE ( 'classification_officer' ) ;
#163 = AXIS2_PLACEMENT_3D ( 'NONE', #84, #210, #102 ) ;
#164 = LINE ( 'NONE', #206, #67 ) ;
#165 = AXIS2_PLACEMENT_3D ( 'NONE', #227, #37, #99 ) ;
#166 = LINE ( 'NONE', #44, #235 ) ;
#167 = PERSON_AND_ORGANIZATION ( #109, #113 ) ;
#168 = DIRECTION ( 'NONE',  ( -0.0000000000000000000, -1.000000000000000000, -0.0000000000000000000 ) ) ;
#169 = APPROVAL_DATE_TIME ( #176, #189 ) ;
#170 = CARTESIAN_POINT ( 'NONE',  ( -15.89999999999999680, 6.150000000000001243, 0.9499999999999999556 ) ) ;
#171 = VERTEX_POINT ( 'NONE', #118 ) ;
#172 = VECTOR ( 'NONE', #138, 1000.000000000000000 ) ;
#173 = DIRECTION ( 'NONE',  ( 1.000000000000000000, 0.0000000000000000000, 0.0000000000000000000 ) ) ;
#174 = PLANE ( 'NONE',  #186 ) ;
#175 = VERTEX_POINT ( 'NONE', #134 ) ;
#176 = DATE_AND_TIME ( #86, #133 ) ;
#177 = DIRECTION ( 'NONE',  ( 0.0000000000000000000, 0.0000000000000000000, 1.000000000000000000 ) ) ;
#178 =( LENGTH_UNIT ( ) NAMED_UNIT ( * ) SI_UNIT ( .MILLI., .METRE. ) );
#179 = EDGE_CURVE ( 'NONE', #153, #200, #108, .T. ) ;
#180 = ORIENTED_EDGE ( 'NONE', *, *, #183, .T. ) ;
#181 = LINE ( 'NONE', #81, #201 ) ;
#182 = CC_DESIGN_APPROVAL ( #148, ( #34 ) ) ;
#183 = EDGE_CURVE ( 'NONE', #200, #175, #106, .T. ) ;
#184 = ORIENTED_EDGE ( 'NONE', *, *, #2, .F. ) ;
#185 = DIRECTION ( 'NONE',  ( 1.000000000000000000, 0.0000000000000000000, 0.0000000000000000000 ) ) ;
#186 = AXIS2_PLACEMENT_3D ( 'NONE', #85, #211, #103 ) ;
#187 = ORIENTED_EDGE ( 'NONE', *, *, #151, .T. ) ;
#188 = FACE_OUTER_BOUND ( 'NONE', #53, .T. ) ;
#189 = APPROVAL ( #126, 'UNSPECIFIED' ) ;
#190 = CARTESIAN_POINT ( 'NONE',  ( 15.90000000000000391, 6.150000000000001243, 0.0000000000000000000 ) ) ;
#191 = DIRECTION ( 'NONE',  ( -1.000000000000000000, -0.0000000000000000000, -0.0000000000000000000 ) ) ;
#192 = DATE_AND_TIME ( #213, #77 ) ;
#193 = CARTESIAN_POINT ( 'NONE',  ( 15.90000000000000391, 6.150000000000001243, 0.9499999999999999556 ) ) ;
#194 = CC_DESIGN_PERSON_AND_ORGANIZATION_ASSIGNMENT ( #220, #20, ( #34 ) ) ;
#195 = ORIENTED_EDGE ( 'NONE', *, *, #12, .T. ) ;
#196 = VERTEX_POINT ( 'NONE', #121 ) ;
#197 = APPROVAL_STATUS ( 'not_yet_approved' ) ;
#198 = VECTOR ( 'NONE', #191, 1000.000000000000000 ) ;
#199 = LOCAL_TIME ( 15, 50, 44.00000000000000000, #222 ) ;
#200 = VERTEX_POINT ( 'NONE', #230 ) ;
#201 = VECTOR ( 'NONE', #205, 1000.000000000000000 ) ;
#202 = EDGE_CURVE ( 'NONE', #175, #55, #181, .T. ) ;
#203 = ADVANCED_FACE ( 'NONE', ( #122 ), #29, .F. ) ;
#204 = COORDINATED_UNIVERSAL_TIME_OFFSET ( 5, 0, .BEHIND. ) ;
#205 = DIRECTION ( 'NONE',  ( -0.0000000000000000000, -0.0000000000000000000, -1.000000000000000000 ) ) ;
#206 = CARTESIAN_POINT ( 'NONE',  ( -15.89999999999999680, 6.150000000000001243, 0.9499999999999999556 ) ) ;
#207 = VECTOR ( 'NONE', #185, 1000.000000000000000 ) ;
#208 = FACE_OUTER_BOUND ( 'NONE', #236, .T. ) ;
#209 = CARTESIAN_POINT ( 'NONE',  ( 15.90000000000000391, -6.149999999999999467, 0.9499999999999999556 ) ) ;
#210 = DIRECTION ( 'NONE',  ( 0.0000000000000000000, 0.0000000000000000000, -1.000000000000000000 ) ) ;
#211 = DIRECTION ( 'NONE',  ( 0.0000000000000000000, 0.0000000000000000000, -1.000000000000000000 ) ) ;
#212 = DATE_TIME_ROLE ( 'classification_date' ) ;
#213 = CALENDAR_DATE ( 2021, 11, 3 ) ;
#214 = DIRECTION ( 'NONE',  ( 1.000000000000000000, 0.0000000000000000000, 0.0000000000000000000 ) ) ;
#215 = ORIENTED_EDGE ( 'NONE', *, *, #136, .F. ) ;
#216 = APPLICATION_PROTOCOL_DEFINITION ( 'international standard', 'config_control_design', 1994, #31 ) ;
#217 = PERSON_AND_ORGANIZATION ( #109, #113 ) ;
#218 = ORIENTED_EDGE ( 'NONE', *, *, #202, .F. ) ;
#219 = EDGE_CURVE ( 'NONE', #112, #196, #24, .T. ) ;
#220 = PERSON_AND_ORGANIZATION ( #109, #113 ) ;
#221 = ORIENTED_EDGE ( 'NONE', *, *, #151, .F. ) ;
#222 = COORDINATED_UNIVERSAL_TIME_OFFSET ( 5, 0, .BEHIND. ) ;
#223 = ADVANCED_FACE ( 'NONE', ( #56 ), #30, .F. ) ;
#224 = CARTESIAN_POINT ( 'NONE',  ( -15.89999999999999680, -6.149999999999999467, 0.0000000000000000000 ) ) ;
#225 = ADVANCED_FACE ( 'NONE', ( #208 ), #43, .F. ) ;
#226 = CARTESIAN_POINT ( 'NONE',  ( -15.89999999999999680, -6.149999999999999467, 0.9499999999999999556 ) ) ;
#227 = CARTESIAN_POINT ( 'NONE',  ( -15.89999999999999680, -6.149999999999999467, 0.9499999999999999556 ) ) ;
#228 = DIRECTION ( 'NONE',  ( 1.000000000000000000, 0.0000000000000000000, 0.0000000000000000000 ) ) ;
#229 = ORIENTED_EDGE ( 'NONE', *, *, #38, .F. ) ;
#230 = CARTESIAN_POINT ( 'NONE',  ( -15.89999999999999680, 6.150000000000001243, 0.9499999999999999556 ) ) ;
#231 = COORDINATED_UNIVERSAL_TIME_OFFSET ( 5, 0, .BEHIND. ) ;
#232 = DATE_TIME_ROLE ( 'creation_date' ) ;
#233 = PRODUCT ( 'Web Model Lightsmyth Gratings_16876', 'Web Model Lightsmyth Gratings_16876', '', ( #87 ) ) ;
#234 = APPLICATION_PROTOCOL_DEFINITION ( 'international standard', 'config_control_design', 1994, #104 ) ;
#235 = VECTOR ( 'NONE', #83, 1000.000000000000000 ) ;
#236 = EDGE_LOOP ( 'NONE', ( #89, #150, #9, #4 ) ) ;
#237 = APPROVAL_ROLE ( '' ) ;
ENDSEC;
END-ISO-10303-21;
