ISO-10303-21;
HEADER;
FILE_DESCRIPTION (( 'STEP AP203' ),
    '1' );
FILE_NAME ('TTN225624-E0W.STEP',
    '2022-08-12T15:54:05',
    ( '' ),
    ( '' ),
    'SwSTEP 2.0',
    'SolidWorks 2018',
    '' );
FILE_SCHEMA (( 'CONFIG_CONTROL_DESIGN' ));
ENDSEC;

DATA;
#1 = CONICAL_SURFACE ( 'NONE', #142, 0.006205628709319991991, 1.175569617075077566 ) ;
#2 = PERSON_AND_ORGANIZATION_ROLE ( 'creator' ) ;
#3 = CC_DESIGN_DATE_AND_TIME_ASSIGNMENT ( #254, #49, ( #103 ) ) ;
#4 = ORIENTED_EDGE ( 'NONE', *, *, #42, .T. ) ;
#5 = CARTESIAN_POINT ( 'NONE',  ( 0.000000000000000000, 0.006205628709319991124, 0.003921700012811171580 ) ) ;
#6 = DIRECTION ( 'NONE',  ( -0.000000000000000000, -1.836909530733566134E-16, 1.000000000000000000 ) ) ;
#7 = ORIENTED_EDGE ( 'NONE', *, *, #250, .F. ) ;
#8 = PERSON_AND_ORGANIZATION ( #325, #59 ) ;
#9 = CARTESIAN_POINT ( 'NONE',  ( 7.776507174585694520E-19, 0.006350000000000001477, 0.001450000000000000984 ) ) ;
#10 = CC_DESIGN_PERSON_AND_ORGANIZATION_ASSIGNMENT ( #8, #306, ( #252 ) ) ;
#11 = CIRCLE ( 'NONE', #134, 0.009026000000000009710 ) ;
#12 = EDGE_CURVE ( 'NONE', #43, #27, #197, .T. ) ;
#13 = DIRECTION ( 'NONE',  ( -0.000000000000000000, -1.836909530733564901E-16, 1.000000000000000000 ) ) ;
#14 = CARTESIAN_POINT ( 'NONE',  ( 0.000000000000000000, -4.540289310647118211E-19, 0.003921700012811170713 ) ) ;
#15 = CIRCLE ( 'NONE', #292, 0.006246020822702089310 ) ;
#16 = CARTESIAN_POINT ( 'NONE',  ( 0.000000000000000000, 0.000000000000000000, 0.01047600000000001308 ) ) ;
#17 = VECTOR ( 'NONE', #204, 1.000000000000000222 ) ;
#18 = AXIS2_PLACEMENT_3D ( 'NONE', #101, #266, #223 ) ;
#19 =( NAMED_UNIT ( * ) SI_UNIT ( $, .STERADIAN. ) SOLID_ANGLE_UNIT ( ) );
#20 = CC_DESIGN_APPROVAL ( #33, ( #103 ) ) ;
#21 = CARTESIAN_POINT ( 'NONE',  ( 0.000000000000000000, -1.486193517976817813E-19, 0.002259072789438524957 ) ) ;
#22 = ORIENTED_EDGE ( 'NONE', *, *, #12, .T. ) ;
#23 = PERSON_AND_ORGANIZATION ( #325, #59 ) ;
#24 = LINE ( 'NONE', #35, #277 ) ;
#25 = COORDINATED_UNIVERSAL_TIME_OFFSET ( 5, 0, .BEHIND. ) ;
#26 = CARTESIAN_POINT ( 'NONE',  ( 0.000000000000000000, 1.203965611375416649E-18, 0.003921700012811170713 ) ) ;
#27 = VERTEX_POINT ( 'NONE', #298 ) ;
#28 = COORDINATED_UNIVERSAL_TIME_OFFSET ( 5, 0, .BEHIND. ) ;
#29 = ORIENTED_EDGE ( 'NONE', *, *, #92, .T. ) ;
#30 = CIRCLE ( 'NONE', #171, 0.007499999999999999722 ) ;
#31 = EDGE_CURVE ( 'NONE', #281, #48, #289, .T. ) ;
#32 = DIRECTION ( 'NONE',  ( 0.000000000000000000, 1.836909530733580185E-16, -1.000000000000000000 ) ) ;
#33 = APPROVAL ( #140, 'UNSPECIFIED' ) ;
#34 = ORIENTED_EDGE ( 'NONE', *, *, #44, .F. ) ;
#35 = CARTESIAN_POINT ( 'NONE',  ( 0.000000000000000000, -0.006350000000000001477, 0.002259072789438523656 ) ) ;
#36 = DIRECTION ( 'NONE',  ( 1.000000000000000000, 0.000000000000000000, 0.000000000000000000 ) ) ;
#37 = ORIENTED_EDGE ( 'NONE', *, *, #202, .T. ) ;
#38 = DIRECTION ( 'NONE',  ( 0.000000000000000000, 1.836909530733580185E-16, -1.000000000000000000 ) ) ;
#39 = PERSON_AND_ORGANIZATION ( #325, #59 ) ;
#40 = DIRECTION ( 'NONE',  ( -0.000000000000000000, -1.836909530733564901E-16, 1.000000000000000000 ) ) ;
#41 = DIRECTION ( 'NONE',  ( -1.000000000000000000, 0.000000000000000000, 0.000000000000000000 ) ) ;
#42 = EDGE_CURVE ( 'NONE', #91, #153, #15, .T. ) ;
#43 = VERTEX_POINT ( 'NONE', #297 ) ;
#44 = EDGE_CURVE ( 'NONE', #48, #281, #139, .T. ) ;
#45 = ORIENTED_EDGE ( 'NONE', *, *, #68, .F. ) ;
#46 = CALENDAR_DATE ( 2022, 12, 8 ) ;
#47 = AXIS2_PLACEMENT_3D ( 'NONE', #185, #308, #283 ) ;
#48 = VERTEX_POINT ( 'NONE', #147 ) ;
#49 = DATE_TIME_ROLE ( 'creation_date' ) ;
#50 = LOCAL_TIME ( 11, 54, 5.000000000000000000, #323 ) ;
#51 = APPROVAL_ROLE ( '' ) ;
#52 = APPROVAL_STATUS ( 'not_yet_approved' ) ;
#53 = AXIS2_PLACEMENT_3D ( 'NONE', #97, #168, #244 ) ;
#54 = LOCAL_TIME ( 11, 54, 5.000000000000000000, #25 ) ;
#55 = CARTESIAN_POINT ( 'NONE',  ( 0.000000000000000000, -4.540289310647118211E-19, 0.003921700012811170713 ) ) ;
#56 = CC_DESIGN_DATE_AND_TIME_ASSIGNMENT ( #307, #235, ( #130 ) ) ;
#57 = ADVANCED_FACE ( 'NONE', ( #72 ), #215, .T. ) ;
#58 = DIRECTION ( 'NONE',  ( 0.000000000000000000, 1.836909530733564901E-16, -1.000000000000000000 ) ) ;
#59 = ORGANIZATION ( 'UNSPECIFIED', 'UNSPECIFIED', '' ) ;
#60 = CARTESIAN_POINT ( 'NONE',  ( 0.000000000000000000, 0.000000000000000000, 0.01047600000000001308 ) ) ;
#61 = ORIENTED_EDGE ( 'NONE', *, *, #129, .T. ) ;
#62 = APPROVAL_DATE_TIME ( #107, #150 ) ;
#63 = DIRECTION ( 'NONE',  ( 1.000000000000000000, 0.000000000000000000, 0.000000000000000000 ) ) ;
#64 = DIRECTION ( 'NONE',  ( -0.000000000000000000, -1.836909530733564901E-16, 1.000000000000000000 ) ) ;
#65 = APPROVAL ( #111, 'UNSPECIFIED' ) ;
#66 = DIRECTION ( 'NONE',  ( 0.000000000000000000, -1.000000000000000000, -1.707404996040164018E-16 ) ) ;
#67 = EDGE_LOOP ( 'NONE', ( #154, #108, #61, #45 ) ) ;
#68 = EDGE_CURVE ( 'NONE', #145, #272, #152, .T. ) ;
#69 = PERSON_AND_ORGANIZATION ( #325, #59 ) ;
#70 = AXIS2_PLACEMENT_3D ( 'NONE', #222, #191, #226 ) ;
#71 = EDGE_CURVE ( 'NONE', #153, #145, #80, .T. ) ;
#72 = FACE_OUTER_BOUND ( 'NONE', #127, .T. ) ;
#73 = ORIENTED_EDGE ( 'NONE', *, *, #92, .F. ) ;
#74 = EDGE_LOOP ( 'NONE', ( #219, #267, #324, #322 ) ) ;
#75 = CONICAL_SURFACE ( 'NONE', #246, 0.006350000000000001477, 0.2805534081151992987 ) ;
#76 = FACE_OUTER_BOUND ( 'NONE', #74, .T. ) ;
#77 = AXIS2_PLACEMENT_3D ( 'NONE', #196, #105, #178 ) ;
#78 = EDGE_CURVE ( 'NONE', #281, #43, #228, .T. ) ;
#79 = AXIS2_PLACEMENT_3D ( 'NONE', #16, #63, #262 ) ;
#80 = LINE ( 'NONE', #169, #158 ) ;
#81 = ORIENTED_EDGE ( 'NONE', *, *, #31, .T. ) ;
#82 = CC_DESIGN_APPROVAL ( #65, ( #252 ) ) ;
#83 = EDGE_LOOP ( 'NONE', ( #73, #176, #203, #135 ) ) ;
#84 = SPHERICAL_SURFACE ( 'NONE', #257, 0.009026000000000009710 ) ;
#85 = CARTESIAN_POINT ( 'NONE',  ( 7.776507174585694520E-19, 0.006350000000000001477, 0.002259072789438526258 ) ) ;
#86 = FACE_OUTER_BOUND ( 'NONE', #67, .T. ) ;
#87 = CALENDAR_DATE ( 2022, 12, 8 ) ;
#88 = DIRECTION ( 'NONE',  ( -0.000000000000000000, -1.836909530733564901E-16, 1.000000000000000000 ) ) ;
#89 = ADVANCED_FACE ( 'NONE', ( #259 ), #157, .T. ) ;
#90 = ADVANCED_FACE ( 'NONE', ( #193 ), #200, .T. ) ;
#91 = VERTEX_POINT ( 'NONE', #179 ) ;
#92 = EDGE_CURVE ( 'NONE', #48, #27, #210, .T. ) ;
#93 = MECHANICAL_CONTEXT ( 'NONE', #265, 'mechanical' ) ;
#94 = PERSON_AND_ORGANIZATION ( #325, #59 ) ;
#95 = AXIS2_PLACEMENT_3D ( 'NONE', #138, #314, #167 ) ;
#96 = CARTESIAN_POINT ( 'NONE',  ( 0.000000000000000000, 0.000000000000000000, 0.01047600000000001308 ) ) ;
#97 = CARTESIAN_POINT ( 'NONE',  ( 0.000000000000000000, 0.000000000000000000, 0.000000000000000000 ) ) ;
#98 = DIRECTION ( 'NONE',  ( 0.000000000000000000, -1.000000000000000000, -2.048885995248196921E-16 ) ) ;
#99 = ORIENTED_EDGE ( 'NONE', *, *, #195, .F. ) ;
#100 = LINE ( 'NONE', #9, #199 ) ;
#101 = CARTESIAN_POINT ( 'NONE',  ( 0.000000000000000000, -4.429654963875512709E-19, 0.003861471490436732892 ) ) ;
#102 = APPROVAL_PERSON_ORGANIZATION ( #237, #150, #278 ) ;
#103 = PRODUCT_DEFINITION ( 'UNKNOWN', '', #252, #123 ) ;
#104 =( GEOMETRIC_REPRESENTATION_CONTEXT ( 3 ) GLOBAL_UNCERTAINTY_ASSIGNED_CONTEXT ( ( #232 ) ) GLOBAL_UNIT_ASSIGNED_CONTEXT ( ( #296, #317, #19 ) ) REPRESENTATION_CONTEXT ( 'NONE', 'WORKASPACE' ) );
#105 = DIRECTION ( 'NONE',  ( -0.000000000000000000, -1.836909530733566134E-16, 1.000000000000000000 ) ) ;
#106 = CC_DESIGN_SECURITY_CLASSIFICATION ( #130, ( #252 ) ) ;
#107 = DATE_AND_TIME ( #318, #54 ) ;
#108 = ORIENTED_EDGE ( 'NONE', *, *, #42, .F. ) ;
#109 = APPROVAL_DATE_TIME ( #175, #65 ) ;
#110 = EDGE_CURVE ( 'NONE', #304, #91, #269, .T. ) ;
#111 = APPROVAL_STATUS ( 'not_yet_approved' ) ;
#112 = DIRECTION ( 'NONE',  ( 0.000000000000000000, -0.2768874620972694989, 0.9609023536933050114 ) ) ;
#113 = MANIFOLD_SOLID_BREP ( 'TTN225636-1-solid1', #198 ) ;
#114 = CC_DESIGN_PERSON_AND_ORGANIZATION_ASSIGNMENT ( #282, #2, ( #103 ) ) ;
#115 = EDGE_LOOP ( 'NONE', ( #172, #236, #253 ) ) ;
#116 = DIRECTION ( 'NONE',  ( 0.000000000000000000, -1.000000000000000000, -1.735828623152857339E-16 ) ) ;
#117 = ADVANCED_FACE ( 'NONE', ( #227 ), #327, .T. ) ;
#118 = APPROVAL_PERSON_ORGANIZATION ( #39, #33, #159 ) ;
#119 = CARTESIAN_POINT ( 'NONE',  ( 0.000000000000000000, -4.429654963875512709E-19, 0.003861471490436732892 ) ) ;
#120 = APPLICATION_CONTEXT ( 'configuration controlled 3d designs of mechanical parts and assemblies' ) ;
#121 = DIRECTION ( 'NONE',  ( 0.000000000000000000, 1.000000000000000000, 1.921918320382013324E-16 ) ) ;
#122 = CARTESIAN_POINT ( 'NONE',  ( 0.000000000000000000, -1.486193517976818294E-19, 0.002259072789438524957 ) ) ;
#123 = DESIGN_CONTEXT ( 'detailed design', #120, 'design' ) ;
#124 = DIRECTION ( 'NONE',  ( 1.000000000000000000, -1.224646799147353207E-16, -2.249565377136128279E-32 ) ) ;
#125 = CARTESIAN_POINT ( 'NONE',  ( 0.000000000000000000, 7.626432463590506868E-19, 0.001898226417255882877 ) ) ;
#126 = PRODUCT_RELATED_PRODUCT_CATEGORY ( 'detail', '', ( #302 ) ) ;
#127 = EDGE_LOOP ( 'NONE', ( #99, #309, #284, #37 ) ) ;
#128 = LOCAL_TIME ( 11, 54, 5.000000000000000000, #28 ) ;
#129 = EDGE_CURVE ( 'NONE', #91, #272, #24, .T. ) ;
#130 = SECURITY_CLASSIFICATION ( '', '', #177 ) ;
#131 = APPROVAL_DATE_TIME ( #251, #33 ) ;
#132 = CC_DESIGN_APPROVAL ( #150, ( #130 ) ) ;
#133 = PERSON_AND_ORGANIZATION_ROLE ( 'classification_officer' ) ;
#134 = AXIS2_PLACEMENT_3D ( 'NONE', #164, #166, #258 ) ;
#135 = ORIENTED_EDGE ( 'NONE', *, *, #202, .F. ) ;
#136 = CIRCLE ( 'NONE', #216, 0.006246020822702089310 ) ;
#137 = FACE_OUTER_BOUND ( 'NONE', #83, .T. ) ;
#138 = CARTESIAN_POINT ( 'NONE',  ( 0.000000000000000000, 0.000000000000000000, 0.006049999999999999822 ) ) ;
#139 = CIRCLE ( 'NONE', #149, 0.006205628709319991124 ) ;
#140 = APPROVAL_STATUS ( 'not_yet_approved' ) ;
#141 = ORIENTED_EDGE ( 'NONE', *, *, #78, .F. ) ;
#142 = AXIS2_PLACEMENT_3D ( 'NONE', #14, #186, #221 ) ;
#143 = CARTESIAN_POINT ( 'NONE',  ( 0.000000000000000000, 9.184395983699172247E-19, -0.001449999999999999900 ) ) ;
#144 = DIRECTION ( 'NONE',  ( 0.000000000000000000, 1.000000000000000000, 1.921918320382013324E-16 ) ) ;
#145 = VERTEX_POINT ( 'NONE', #85 ) ;
#146 = FACE_OUTER_BOUND ( 'NONE', #181, .T. ) ;
#147 = CARTESIAN_POINT ( 'NONE',  ( -7.599703335565648948E-19, -0.006205628709319990256, 0.003921700012811168978 ) ) ;
#148 = VECTOR ( 'NONE', #165, 1.000000000000000000 ) ;
#149 = AXIS2_PLACEMENT_3D ( 'NONE', #26, #264, #192 ) ;
#150 = APPROVAL ( #52, 'UNSPECIFIED' ) ;
#151 = DIRECTION ( 'NONE',  ( 0.000000000000000000, -1.000000000000000000, -1.735828623152857339E-16 ) ) ;
#152 = CIRCLE ( 'NONE', #320, 0.006350000000000001477 ) ;
#153 = VERTEX_POINT ( 'NONE', #211 ) ;
#154 = ORIENTED_EDGE ( 'NONE', *, *, #71, .F. ) ;
#155 = AXIS2_PLACEMENT_3D ( 'NONE', #55, #32, #238 ) ;
#156 = CIRCLE ( 'NONE', #79, 0.009026000000000009710 ) ;
#157 = CYLINDRICAL_SURFACE ( 'NONE', #77, 0.006350000000000001477 ) ;
#158 = VECTOR ( 'NONE', #189, 1.000000000000000000 ) ;
#159 = APPROVAL_ROLE ( '' ) ;
#160 = AXIS2_PLACEMENT_3D ( 'NONE', #21, #40, #319 ) ;
#161 = PRODUCT_DEFINITION_SHAPE ( 'NONE', 'NONE',  #103 ) ;
#162 = SPHERICAL_SURFACE ( 'NONE', #274, 0.007499999999999999722 ) ;
#163 = LOCAL_TIME ( 11, 54, 5.000000000000000000, #271 ) ;
#164 = CARTESIAN_POINT ( 'NONE',  ( 0.000000000000000000, 0.000000000000000000, 0.01047600000000001308 ) ) ;
#165 = DIRECTION ( 'NONE',  ( 1.130237921235114669E-16, -0.9229093008874316162, -0.3850174312099031160 ) ) ;
#166 = DIRECTION ( 'NONE',  ( -1.000000000000000000, 1.224646799147353207E-16, 2.249565377136128279E-32 ) ) ;
#167 = DIRECTION ( 'NONE',  ( 0.000000000000000000, 0.000000000000000000, 1.000000000000000000 ) ) ;
#168 = DIRECTION ( 'NONE',  ( 0.000000000000000000, 0.000000000000000000, 1.000000000000000000 ) ) ;
#169 = CARTESIAN_POINT ( 'NONE',  ( 7.776507174585694520E-19, 0.006350000000000001477, 0.002259072789438526258 ) ) ;
#170 = EDGE_CURVE ( 'NONE', #279, #48, #11, .T. ) ;
#171 = AXIS2_PLACEMENT_3D ( 'NONE', #183, #124, #316 ) ;
#172 = ORIENTED_EDGE ( 'NONE', *, *, #110, .F. ) ;
#173 = DIRECTION ( 'NONE',  ( 0.000000000000000000, 1.836909530733564901E-16, -1.000000000000000000 ) ) ;
#174 = ORIENTED_EDGE ( 'NONE', *, *, #12, .F. ) ;
#175 = DATE_AND_TIME ( #243, #128 ) ;
#176 = ORIENTED_EDGE ( 'NONE', *, *, #31, .F. ) ;
#177 = SECURITY_CLASSIFICATION_LEVEL ( 'unclassified' ) ;
#178 = DIRECTION ( 'NONE',  ( 0.000000000000000000, -1.000000000000000000, -1.707404996040164018E-16 ) ) ;
#179 = CARTESIAN_POINT ( 'NONE',  ( 0.000000000000000000, -0.006246020822702088443, 0.001898226417255882009 ) ) ;
#180 = DIRECTION ( 'NONE',  ( 0.000000000000000000, 1.000000000000000000, 2.048885995248196921E-16 ) ) ;
#181 = EDGE_LOOP ( 'NONE', ( #299, #263, #275 ) ) ;
#182 = ADVANCED_FACE ( 'NONE', ( #86 ), #75, .T. ) ;
#183 = CARTESIAN_POINT ( 'NONE',  ( 0.000000000000000000, 0.000000000000000000, 0.006049999999999999822 ) ) ;
#184 = APPROVAL_PERSON_ORGANIZATION ( #305, #65, #51 ) ;
#185 = CARTESIAN_POINT ( 'NONE',  ( 0.000000000000000000, 0.000000000000000000, 0.006049999999999999822 ) ) ;
#186 = DIRECTION ( 'NONE',  ( 0.000000000000000000, 1.836909530733580185E-16, -1.000000000000000000 ) ) ;
#187 = CARTESIAN_POINT ( 'NONE',  ( 0.000000000000000000, 0.006205628709319992858, 0.003921700012811171580 ) ) ;
#188 = DIRECTION ( 'NONE',  ( -1.000000000000000000, 0.000000000000000000, 0.000000000000000000 ) ) ;
#189 = DIRECTION ( 'NONE',  ( 3.390893441814549599E-17, 0.2768874620972691658, 0.9609023536933050114 ) ) ;
#190 = EDGE_LOOP ( 'NONE', ( #249, #224, #22, #240 ) ) ;
#191 = DIRECTION ( 'NONE',  ( -0.000000000000000000, -1.836909530733580185E-16, 1.000000000000000000 ) ) ;
#192 = DIRECTION ( 'NONE',  ( 0.000000000000000000, -1.000000000000000000, -1.397701632851070826E-16 ) ) ;
#193 = FACE_OUTER_BOUND ( 'NONE', #303, .T. ) ;
#194 = CALENDAR_DATE ( 2022, 12, 8 ) ;
#195 = EDGE_CURVE ( 'NONE', #145, #43, #100, .T. ) ;
#196 = CARTESIAN_POINT ( 'NONE',  ( 0.000000000000000000, 0.000000000000000000, 0.001449999999999999900 ) ) ;
#197 = CIRCLE ( 'NONE', #18, 0.006350000000000001477 ) ;
#198 = CLOSED_SHELL ( 'NONE', ( #90, #313, #89, #117, #288, #310, #213, #57, #182, #290 ) ) ;
#199 = VECTOR ( 'NONE', #6, 1.000000000000000000 ) ;
#200 = CONICAL_SURFACE ( 'NONE', #155, 0.006205628709319991991, 1.175569617075077566 ) ;
#201 = ORIENTED_EDGE ( 'NONE', *, *, #255, .T. ) ;
#202 = EDGE_CURVE ( 'NONE', #27, #43, #209, .T. ) ;
#203 = ORIENTED_EDGE ( 'NONE', *, *, #78, .T. ) ;
#204 = DIRECTION ( 'NONE',  ( 0.000000000000000000, 0.9229093008874316162, -0.3850174312099026719 ) ) ;
#205 = EDGE_CURVE ( 'NONE', #272, #27, #285, .T. ) ;
#206 = CARTESIAN_POINT ( 'NONE',  ( 0.000000000000000000, -1.486193517976817813E-19, 0.002259072789438524957 ) ) ;
#207 = DIRECTION ( 'NONE',  ( 0.000000000000000000, -1.000000000000000000, -2.312964634635742957E-16 ) ) ;
#208 = EDGE_LOOP ( 'NONE', ( #7, #233, #4 ) ) ;
#209 = CIRCLE ( 'NONE', #230, 0.006350000000000001477 ) ;
#210 = LINE ( 'NONE', #239, #148 ) ;
#211 = CARTESIAN_POINT ( 'NONE',  ( 7.649169407929830245E-19, 0.006246020822702090178, 0.001898226417255883744 ) ) ;
#212 = DIRECTION ( 'NONE',  ( -0.000000000000000000, -1.836909530733566134E-16, 1.000000000000000000 ) ) ;
#213 = ADVANCED_FACE ( 'NONE', ( #268 ), #162, .T. ) ;
#214 = DIRECTION ( 'NONE',  ( 0.000000000000000000, -1.000000000000000000, -2.048885995248196921E-16 ) ) ;
#215 = CYLINDRICAL_SURFACE ( 'NONE', #248, 0.006350000000000001477 ) ;
#216 = AXIS2_PLACEMENT_3D ( 'NONE', #241, #58, #116 ) ;
#217 = APPLICATION_PROTOCOL_DEFINITION ( 'international standard', 'config_control_design', 1994, #265 ) ;
#218 = EDGE_CURVE ( 'NONE', #153, #91, #136, .T. ) ;
#219 = ORIENTED_EDGE ( 'NONE', *, *, #218, .F. ) ;
#220 = LOCAL_TIME ( 11, 54, 5.000000000000000000, #273 ) ;
#221 = DIRECTION ( 'NONE',  ( 0.000000000000000000, 1.000000000000000000, 1.397701632851070826E-16 ) ) ;
#222 = CARTESIAN_POINT ( 'NONE',  ( 0.000000000000000000, 1.203965611375416649E-18, 0.003921700012811170713 ) ) ;
#223 = DIRECTION ( 'NONE',  ( 0.000000000000000000, 1.000000000000000000, 2.048885995248196921E-16 ) ) ;
#224 = ORIENTED_EDGE ( 'NONE', *, *, #195, .T. ) ;
#225 = CIRCLE ( 'NONE', #321, 0.006350000000000001477 ) ;
#226 = DIRECTION ( 'NONE',  ( 0.000000000000000000, -1.000000000000000000, -1.397701632851070826E-16 ) ) ;
#227 = FACE_OUTER_BOUND ( 'NONE', #115, .T. ) ;
#228 = LINE ( 'NONE', #5, #17 ) ;
#229 = CONICAL_SURFACE ( 'NONE', #160, 0.006350000000000001477, 0.2805534081151992987 ) ;
#230 = AXIS2_PLACEMENT_3D ( 'NONE', #119, #38, #180 ) ;
#231 = SPHERICAL_SURFACE ( 'NONE', #295, 0.009026000000000009710 ) ;
#232 = UNCERTAINTY_MEASURE_WITH_UNIT (LENGTH_MEASURE( 1.000000000000000082E-05 ), #296, 'distance_accuracy_value', 'NONE');
#233 = ORIENTED_EDGE ( 'NONE', *, *, #110, .T. ) ;
#234 = PERSON_AND_ORGANIZATION_ROLE ( 'design_supplier' ) ;
#235 = DATE_TIME_ROLE ( 'classification_date' ) ;
#236 = ORIENTED_EDGE ( 'NONE', *, *, #250, .T. ) ;
#237 = PERSON_AND_ORGANIZATION ( #325, #59 ) ;
#238 = DIRECTION ( 'NONE',  ( 0.000000000000000000, 1.000000000000000000, 1.397701632851070826E-16 ) ) ;
#239 = CARTESIAN_POINT ( 'NONE',  ( 7.599703335565648948E-19, -0.006205628709319992858, 0.003921700012811169846 ) ) ;
#240 = ORIENTED_EDGE ( 'NONE', *, *, #205, .F. ) ;
#241 = CARTESIAN_POINT ( 'NONE',  ( 0.000000000000000000, 7.626432463590506868E-19, 0.001898226417255882877 ) ) ;
#242 = CARTESIAN_POINT ( 'NONE',  ( 0.000000000000000000, -0.006350000000000001477, 0.002259072789438523656 ) ) ;
#243 = CALENDAR_DATE ( 2022, 12, 8 ) ;
#244 = DIRECTION ( 'NONE',  ( 1.000000000000000000, 0.000000000000000000, 0.000000000000000000 ) ) ;
#245 = PERSON_AND_ORGANIZATION_ROLE ( 'design_owner' ) ;
#246 = AXIS2_PLACEMENT_3D ( 'NONE', #206, #88, #287 ) ;
#247 = EDGE_CURVE ( 'NONE', #272, #145, #225, .T. ) ;
#248 = AXIS2_PLACEMENT_3D ( 'NONE', #270, #294, #66 ) ;
#249 = ORIENTED_EDGE ( 'NONE', *, *, #247, .T. ) ;
#250 = EDGE_CURVE ( 'NONE', #304, #153, #30, .T. ) ;
#251 = DATE_AND_TIME ( #194, #220 ) ;
#252 = PRODUCT_DEFINITION_FORMATION_WITH_SPECIFIED_SOURCE ( 'ANY', '', #302, .NOT_KNOWN. ) ;
#253 = ORIENTED_EDGE ( 'NONE', *, *, #218, .T. ) ;
#254 = DATE_AND_TIME ( #46, #50 ) ;
#255 = EDGE_CURVE ( 'NONE', #279, #281, #156, .T. ) ;
#256 = EDGE_LOOP ( 'NONE', ( #326, #201, #81 ) ) ;
#257 = AXIS2_PLACEMENT_3D ( 'NONE', #60, #41, #144 ) ;
#258 = DIRECTION ( 'NONE',  ( -1.224646799147353207E-16, -1.000000000000000000, 0.000000000000000000 ) ) ;
#259 = FACE_OUTER_BOUND ( 'NONE', #190, .T. ) ;
#260 = CARTESIAN_POINT ( 'NONE',  ( 0.000000000000000000, 0.000000000000000000, 0.006049999999999999822 ) ) ;
#261 = ADVANCED_BREP_SHAPE_REPRESENTATION ( 'TTN225624-E0W', ( #113, #53 ), #104 ) ;
#262 = DIRECTION ( 'NONE',  ( 0.000000000000000000, 0.000000000000000000, -1.000000000000000000 ) ) ;
#263 = ORIENTED_EDGE ( 'NONE', *, *, #170, .T. ) ;
#264 = DIRECTION ( 'NONE',  ( -0.000000000000000000, -1.836909530733580185E-16, 1.000000000000000000 ) ) ;
#265 = APPLICATION_CONTEXT ( 'configuration controlled 3d designs of mechanical parts and assemblies' ) ;
#266 = DIRECTION ( 'NONE',  ( 0.000000000000000000, 1.836909530733580185E-16, -1.000000000000000000 ) ) ;
#267 = ORIENTED_EDGE ( 'NONE', *, *, #71, .T. ) ;
#268 = FACE_OUTER_BOUND ( 'NONE', #208, .T. ) ;
#269 = CIRCLE ( 'NONE', #95, 0.007499999999999999722 ) ;
#270 = CARTESIAN_POINT ( 'NONE',  ( 0.000000000000000000, 0.000000000000000000, 0.001449999999999999900 ) ) ;
#271 = COORDINATED_UNIVERSAL_TIME_OFFSET ( 5, 0, .BEHIND. ) ;
#272 = VERTEX_POINT ( 'NONE', #242 ) ;
#273 = COORDINATED_UNIVERSAL_TIME_OFFSET ( 5, 0, .BEHIND. ) ;
#274 = AXIS2_PLACEMENT_3D ( 'NONE', #260, #36, #207 ) ;
#275 = ORIENTED_EDGE ( 'NONE', *, *, #44, .T. ) ;
#276 = VECTOR ( 'NONE', #212, 1.000000000000000000 ) ;
#277 = VECTOR ( 'NONE', #112, 1.000000000000000000 ) ;
#278 = APPROVAL_ROLE ( '' ) ;
#279 = VERTEX_POINT ( 'NONE', #293 ) ;
#280 = CC_DESIGN_PERSON_AND_ORGANIZATION_ASSIGNMENT ( #94, #245, ( #302 ) ) ;
#281 = VERTEX_POINT ( 'NONE', #187 ) ;
#282 = PERSON_AND_ORGANIZATION ( #325, #59 ) ;
#283 = DIRECTION ( 'NONE',  ( 0.000000000000000000, -1.000000000000000000, -2.312964634635742957E-16 ) ) ;
#284 = ORIENTED_EDGE ( 'NONE', *, *, #205, .T. ) ;
#285 = LINE ( 'NONE', #311, #276 ) ;
#286 = FACE_OUTER_BOUND ( 'NONE', #256, .T. ) ;
#287 = DIRECTION ( 'NONE',  ( 0.000000000000000000, -1.000000000000000000, -2.048885995248196921E-16 ) ) ;
#288 = ADVANCED_FACE ( 'NONE', ( #146 ), #84, .F. ) ;
#289 = CIRCLE ( 'NONE', #70, 0.006205628709319991124 ) ;
#290 = ADVANCED_FACE ( 'NONE', ( #137 ), #1, .T. ) ;
#291 = APPLICATION_PROTOCOL_DEFINITION ( 'international standard', 'config_control_design', 1994, #120 ) ;
#292 = AXIS2_PLACEMENT_3D ( 'NONE', #125, #173, #151 ) ;
#293 = CARTESIAN_POINT ( 'NONE',  ( 0.000000000000000000, 2.210677642895319703E-18, 0.001450000000000003370 ) ) ;
#294 = DIRECTION ( 'NONE',  ( -0.000000000000000000, -1.836909530733566134E-16, 1.000000000000000000 ) ) ;
#295 = AXIS2_PLACEMENT_3D ( 'NONE', #96, #188, #121 ) ;
#296 =( LENGTH_UNIT ( ) NAMED_UNIT ( * ) SI_UNIT ( $, .METRE. ) );
#297 = CARTESIAN_POINT ( 'NONE',  ( 7.776507174585694520E-19, 0.006350000000000000609, 0.003861471490436734193 ) ) ;
#298 = CARTESIAN_POINT ( 'NONE',  ( 0.000000000000000000, -0.006350000000000003211, 0.003861471490436731591 ) ) ;
#299 = ORIENTED_EDGE ( 'NONE', *, *, #255, .F. ) ;
#300 = CC_DESIGN_PERSON_AND_ORGANIZATION_ASSIGNMENT ( #23, #234, ( #252 ) ) ;
#301 = SHAPE_DEFINITION_REPRESENTATION ( #161, #261 ) ;
#302 = PRODUCT ( 'TTN225624-E0W', 'TTN225624-E0W', '', ( #93 ) ) ;
#303 = EDGE_LOOP ( 'NONE', ( #34, #29, #174, #141 ) ) ;
#304 = VERTEX_POINT ( 'NONE', #143 ) ;
#305 = PERSON_AND_ORGANIZATION ( #325, #59 ) ;
#306 = PERSON_AND_ORGANIZATION_ROLE ( 'creator' ) ;
#307 = DATE_AND_TIME ( #87, #163 ) ;
#308 = DIRECTION ( 'NONE',  ( 1.000000000000000000, 0.000000000000000000, 0.000000000000000000 ) ) ;
#309 = ORIENTED_EDGE ( 'NONE', *, *, #68, .T. ) ;
#310 = ADVANCED_FACE ( 'NONE', ( #286 ), #231, .F. ) ;
#311 = CARTESIAN_POINT ( 'NONE',  ( 0.000000000000000000, -0.006350000000000001477, 0.001449999999999998816 ) ) ;
#312 = CARTESIAN_POINT ( 'NONE',  ( 0.000000000000000000, -1.486193517976818294E-19, 0.002259072789438524957 ) ) ;
#313 = ADVANCED_FACE ( 'NONE', ( #76 ), #229, .T. ) ;
#314 = DIRECTION ( 'NONE',  ( -1.000000000000000000, 0.000000000000000000, -0.000000000000000000 ) ) ;
#315 = CC_DESIGN_PERSON_AND_ORGANIZATION_ASSIGNMENT ( #69, #133, ( #130 ) ) ;
#316 = DIRECTION ( 'NONE',  ( 1.224646799147353207E-16, 1.000000000000000000, 0.000000000000000000 ) ) ;
#317 =( NAMED_UNIT ( * ) PLANE_ANGLE_UNIT ( ) SI_UNIT ( $, .RADIAN. ) );
#318 = CALENDAR_DATE ( 2022, 12, 8 ) ;
#319 = DIRECTION ( 'NONE',  ( 0.000000000000000000, -1.000000000000000000, -2.048885995248196921E-16 ) ) ;
#320 = AXIS2_PLACEMENT_3D ( 'NONE', #122, #64, #98 ) ;
#321 = AXIS2_PLACEMENT_3D ( 'NONE', #312, #13, #214 ) ;
#322 = ORIENTED_EDGE ( 'NONE', *, *, #129, .F. ) ;
#323 = COORDINATED_UNIVERSAL_TIME_OFFSET ( 5, 0, .BEHIND. ) ;
#324 = ORIENTED_EDGE ( 'NONE', *, *, #247, .F. ) ;
#325 = PERSON ( 'UNSPECIFIED', 'UNSPECIFIED', 'UNSPECIFIED', ('UNSPECIFIED'), ('UNSPECIFIED'), ('UNSPECIFIED') ) ;
#326 = ORIENTED_EDGE ( 'NONE', *, *, #170, .F. ) ;
#327 = SPHERICAL_SURFACE ( 'NONE', #47, 0.007499999999999999722 ) ;
ENDSEC;
END-ISO-10303-21;
