ISO-10303-21;
HEADER;
FILE_DESCRIPTION (( 'STEP AP203' ),
    '1' );
FILE_NAME ('Web Model 46604_46605.step',
    '2017-04-10T15:59:15',
    ( '' ),
    ( '' ),
    'SwSTEP 2.0',
    'SolidWorks 2016',
    '' );
FILE_SCHEMA (( 'CONFIG_CONTROL_DESIGN' ));
ENDSEC;

DATA;
#1 = CLOSED_SHELL ( 'NONE', ( #174, #128, #149, #59, #44, #113 ) ) ;
#2 = DIRECTION ( 'NONE',  ( 0.0000000000000000000, -0.0000000000000000000, -1.000000000000000000 ) ) ;
#3 = DIRECTION ( 'NONE',  ( 0.0000000000000000000, 0.0000000000000000000, 1.000000000000000000 ) ) ;
#4 = EDGE_CURVE ( 'NONE', #46, #157, #196, .T. ) ;
#5 = PERSON_AND_ORGANIZATION ( #94, #72 ) ;
#6 = CC_DESIGN_PERSON_AND_ORGANIZATION_ASSIGNMENT ( #115, #35, ( #230 ) ) ;
#7 = ORIENTED_EDGE ( 'NONE', *, *, #39, .F. ) ;
#8 = ORIENTED_EDGE ( 'NONE', *, *, #206, .F. ) ;
#9 = LINE ( 'NONE', #209, #50 ) ;
#10 = DIRECTION ( 'NONE',  ( 0.0000000000000000000, 0.0000000000000000000, -1.000000000000000000 ) ) ;
#11 =( GEOMETRIC_REPRESENTATION_CONTEXT ( 3 ) GLOBAL_UNCERTAINTY_ASSIGNED_CONTEXT ( ( #212 ) ) GLOBAL_UNIT_ASSIGNED_CONTEXT ( ( #159, #184, #192 ) ) REPRESENTATION_CONTEXT ( 'NONE', 'WORKASPACE' ) );
#12 = PLANE ( 'NONE',  #21 ) ;
#13 = MANIFOLD_SOLID_BREP ( 'Boss-Extrude1', #1 ) ;
#14 = EDGE_CURVE ( 'NONE', #129, #195, #110, .T. ) ;
#15 = DIRECTION ( 'NONE',  ( 0.0000000000000000000, -0.0000000000000000000, 1.000000000000000000 ) ) ;
#16 = CARTESIAN_POINT ( 'NONE',  ( -6.250000000000001800, 8.749999999999998200, -0.5000000000000000000 ) ) ;
#17 = CC_DESIGN_DATE_AND_TIME_ASSIGNMENT ( #173, #234, ( #230 ) ) ;
#18 = ORIENTED_EDGE ( 'NONE', *, *, #206, .T. ) ;
#19 = DIRECTION ( 'NONE',  ( -0.0000000000000000000, -0.0000000000000000000, -1.000000000000000000 ) ) ;
#20 = DATE_AND_TIME ( #169, #101 ) ;
#21 = AXIS2_PLACEMENT_3D ( 'NONE', #137, #92, #78 ) ;
#22 = LINE ( 'NONE', #16, #232 ) ;
#23 = ORIENTED_EDGE ( 'NONE', *, *, #55, .F. ) ;
#24 = ORIENTED_EDGE ( 'NONE', *, *, #99, .T. ) ;
#25 = PRODUCT ( 'Web Model 46604_46605', 'Web Model 46604_46605', '', ( #133 ) ) ;
#26 = VECTOR ( 'NONE', #140, 1000.000000000000000 ) ;
#27 = LINE ( 'NONE', #87, #193 ) ;
#28 = APPROVAL_STATUS ( 'not_yet_approved' ) ;
#29 = COORDINATED_UNIVERSAL_TIME_OFFSET ( 5, 0, .BEHIND. ) ;
#30 = EDGE_CURVE ( 'NONE', #46, #47, #49, .T. ) ;
#31 = VECTOR ( 'NONE', #211, 1000.000000000000000 ) ;
#32 = APPROVAL ( #104, 'UNSPECIFIED' ) ;
#33 = SECURITY_CLASSIFICATION_LEVEL ( 'unclassified' ) ;
#34 = PERSON_AND_ORGANIZATION ( #94, #72 ) ;
#35 = PERSON_AND_ORGANIZATION_ROLE ( 'classification_officer' ) ;
#36 = ORIENTED_EDGE ( 'NONE', *, *, #99, .F. ) ;
#37 = DIRECTION ( 'NONE',  ( -0.0000000000000000000, -1.000000000000000000, -0.0000000000000000000 ) ) ;
#38 = ORIENTED_EDGE ( 'NONE', *, *, #65, .F. ) ;
#39 = EDGE_CURVE ( 'NONE', #157, #95, #9, .T. ) ;
#40 = DATE_AND_TIME ( #67, #172 ) ;
#41 = ORIENTED_EDGE ( 'NONE', *, *, #39, .T. ) ;
#42 = ORIENTED_EDGE ( 'NONE', *, *, #14, .T. ) ;
#43 = CC_DESIGN_APPROVAL ( #32, ( #230 ) ) ;
#44 = ADVANCED_FACE ( 'NONE', ( #222 ), #86, .F. ) ;
#45 = VECTOR ( 'NONE', #122, 1000.000000000000000 ) ;
#46 = VERTEX_POINT ( 'NONE', #54 ) ;
#47 = VERTEX_POINT ( 'NONE', #213 ) ;
#48 = CARTESIAN_POINT ( 'NONE',  ( 0.0000000000000000000, 0.0000000000000000000, -0.5000000000000000000 ) ) ;
#49 = LINE ( 'NONE', #204, #58 ) ;
#50 = VECTOR ( 'NONE', #185, 1000.000000000000000 ) ;
#51 = CARTESIAN_POINT ( 'NONE',  ( 6.249999999999998200, -8.750000000000001800, 0.5000000000000000000 ) ) ;
#52 = APPROVAL_ROLE ( '' ) ;
#53 = CARTESIAN_POINT ( 'NONE',  ( 6.249999999999998200, -8.750000000000001800, 0.5000000000000000000 ) ) ;
#54 = CARTESIAN_POINT ( 'NONE',  ( 6.249999999999998200, 8.749999999999998200, 0.5000000000000000000 ) ) ;
#55 = EDGE_CURVE ( 'NONE', #157, #161, #108, .T. ) ;
#56 = CARTESIAN_POINT ( 'NONE',  ( -6.250000000000001800, 8.749999999999998200, 0.5000000000000000000 ) ) ;
#57 = CC_DESIGN_SECURITY_CLASSIFICATION ( #230, ( #175 ) ) ;
#58 = VECTOR ( 'NONE', #19, 1000.000000000000000 ) ;
#59 = ADVANCED_FACE ( 'NONE', ( #63 ), #143, .F. ) ;
#60 = DIRECTION ( 'NONE',  ( 0.0000000000000000000, 0.0000000000000000000, -1.000000000000000000 ) ) ;
#61 = COORDINATED_UNIVERSAL_TIME_OFFSET ( 5, 0, .BEHIND. ) ;
#62 = CALENDAR_DATE ( 2017, 10, 4 ) ;
#63 = FACE_OUTER_BOUND ( 'NONE', #83, .T. ) ;
#64 = APPROVAL_PERSON_ORGANIZATION ( #5, #189, #114 ) ;
#65 = EDGE_CURVE ( 'NONE', #95, #129, #27, .T. ) ;
#66 = PRODUCT_RELATED_PRODUCT_CATEGORY ( 'detail', '', ( #25 ) ) ;
#67 = CALENDAR_DATE ( 2017, 10, 4 ) ;
#68 = DIRECTION ( 'NONE',  ( -1.000000000000000000, -0.0000000000000000000, -0.0000000000000000000 ) ) ;
#69 = APPROVAL_DATE_TIME ( #40, #117 ) ;
#70 = APPROVAL_ROLE ( '' ) ;
#71 = COORDINATED_UNIVERSAL_TIME_OFFSET ( 5, 0, .BEHIND. ) ;
#72 = ORGANIZATION ( 'UNSPECIFIED', 'UNSPECIFIED', '' ) ;
#73 = ORIENTED_EDGE ( 'NONE', *, *, #76, .T. ) ;
#74 = AXIS2_PLACEMENT_3D ( 'NONE', #201, #3, #183 ) ;
#75 = COORDINATED_UNIVERSAL_TIME_OFFSET ( 5, 0, .BEHIND. ) ;
#76 = EDGE_CURVE ( 'NONE', #95, #80, #126, .T. ) ;
#77 = CARTESIAN_POINT ( 'NONE',  ( 0.0000000000000000000, 0.0000000000000000000, 0.5000000000000000000 ) ) ;
#78 = DIRECTION ( 'NONE',  ( 0.0000000000000000000, 0.0000000000000000000, 1.000000000000000000 ) ) ;
#79 = CALENDAR_DATE ( 2017, 10, 4 ) ;
#80 = VERTEX_POINT ( 'NONE', #51 ) ;
#81 = CARTESIAN_POINT ( 'NONE',  ( -6.250000000000001800, -8.750000000000001800, -0.5000000000000000000 ) ) ;
#82 = CC_DESIGN_PERSON_AND_ORGANIZATION_ASSIGNMENT ( #167, #131, ( #25 ) ) ;
#83 = EDGE_LOOP ( 'NONE', ( #42, #179, #198, #205 ) ) ;
#84 = EDGE_CURVE ( 'NONE', #80, #46, #103, .T. ) ;
#85 = PERSON_AND_ORGANIZATION ( #94, #72 ) ;
#86 = PLANE ( 'NONE',  #134 ) ;
#87 = CARTESIAN_POINT ( 'NONE',  ( -6.250000000000001800, -8.750000000000001800, 0.5000000000000000000 ) ) ;
#88 = ORIENTED_EDGE ( 'NONE', *, *, #4, .F. ) ;
#89 = CALENDAR_DATE ( 2017, 10, 4 ) ;
#90 = CARTESIAN_POINT ( 'NONE',  ( 6.249999999999998200, -8.750000000000001800, -0.5000000000000000000 ) ) ;
#91 = PRODUCT_DEFINITION_SHAPE ( 'NONE', 'NONE',  #93 ) ;
#92 = DIRECTION ( 'NONE',  ( -1.000000000000000000, 0.0000000000000000000, 0.0000000000000000000 ) ) ;
#93 = PRODUCT_DEFINITION ( 'UNKNOWN', '', #175, #187 ) ;
#94 = PERSON ( 'UNSPECIFIED', 'UNSPECIFIED', 'UNSPECIFIED', ('UNSPECIFIED'), ('UNSPECIFIED'), ('UNSPECIFIED') ) ;
#95 = VERTEX_POINT ( 'NONE', #228 ) ;
#96 = EDGE_LOOP ( 'NONE', ( #24, #136, #135, #148 ) ) ;
#97 = FACE_OUTER_BOUND ( 'NONE', #202, .T. ) ;
#98 = LINE ( 'NONE', #145, #31 ) ;
#99 = EDGE_CURVE ( 'NONE', #195, #47, #120, .T. ) ;
#100 = PLANE ( 'NONE',  #194 ) ;
#101 = LOCAL_TIME ( 11, 59, 15.00000000000000000, #61 ) ;
#102 = APPLICATION_PROTOCOL_DEFINITION ( 'international standard', 'config_control_design', 1994, #155 ) ;
#103 = LINE ( 'NONE', #53, #236 ) ;
#104 = APPROVAL_STATUS ( 'not_yet_approved' ) ;
#105 = CARTESIAN_POINT ( 'NONE',  ( -6.250000000000001800, -8.750000000000001800, -0.5000000000000000000 ) ) ;
#106 = ORIENTED_EDGE ( 'NONE', *, *, #227, .F. ) ;
#107 = DIRECTION ( 'NONE',  ( 0.0000000000000000000, 1.000000000000000000, 0.0000000000000000000 ) ) ;
#108 = LINE ( 'NONE', #119, #26 ) ;
#109 = LOCAL_TIME ( 11, 59, 15.00000000000000000, #75 ) ;
#110 = LINE ( 'NONE', #105, #45 ) ;
#111 = DIRECTION ( 'NONE',  ( 1.000000000000000000, 0.0000000000000000000, 0.0000000000000000000 ) ) ;
#112 = LOCAL_TIME ( 11, 59, 15.00000000000000000, #71 ) ;
#113 = ADVANCED_FACE ( 'NONE', ( #219 ), #100, .T. ) ;
#114 = APPROVAL_ROLE ( '' ) ;
#115 = PERSON_AND_ORGANIZATION ( #94, #72 ) ;
#116 = DIRECTION ( 'NONE',  ( 0.0000000000000000000, 1.000000000000000000, 0.0000000000000000000 ) ) ;
#117 = APPROVAL ( #28, 'UNSPECIFIED' ) ;
#118 = CARTESIAN_POINT ( 'NONE',  ( -6.250000000000001800, 8.749999999999998200, -0.5000000000000000000 ) ) ;
#119 = CARTESIAN_POINT ( 'NONE',  ( -6.250000000000001800, 8.749999999999998200, 0.5000000000000000000 ) ) ;
#120 = LINE ( 'NONE', #138, #130 ) ;
#121 = CARTESIAN_POINT ( 'NONE',  ( -6.250000000000001800, 8.749999999999998200, 0.5000000000000000000 ) ) ;
#122 = DIRECTION ( 'NONE',  ( 1.000000000000000000, 0.0000000000000000000, 0.0000000000000000000 ) ) ;
#123 = APPLICATION_PROTOCOL_DEFINITION ( 'international standard', 'config_control_design', 1994, #231 ) ;
#124 = EDGE_LOOP ( 'NONE', ( #36, #125, #8, #106 ) ) ;
#125 = ORIENTED_EDGE ( 'NONE', *, *, #14, .F. ) ;
#126 = LINE ( 'NONE', #181, #210 ) ;
#127 = CC_DESIGN_APPROVAL ( #117, ( #93 ) ) ;
#128 = ADVANCED_FACE ( 'NONE', ( #97 ), #166, .F. ) ;
#129 = VERTEX_POINT ( 'NONE', #81 ) ;
#130 = VECTOR ( 'NONE', #164, 1000.000000000000000 ) ;
#131 = PERSON_AND_ORGANIZATION_ROLE ( 'design_owner' ) ;
#132 = CARTESIAN_POINT ( 'NONE',  ( -6.250000000000001800, -8.750000000000001800, 0.5000000000000000000 ) ) ;
#133 = MECHANICAL_CONTEXT ( 'NONE', #231, 'mechanical' ) ;
#134 = AXIS2_PLACEMENT_3D ( 'NONE', #77, #10, #223 ) ;
#135 = ORIENTED_EDGE ( 'NONE', *, *, #84, .F. ) ;
#136 = ORIENTED_EDGE ( 'NONE', *, *, #30, .F. ) ;
#137 = CARTESIAN_POINT ( 'NONE',  ( 6.249999999999998200, -8.750000000000001800, 0.5000000000000000000 ) ) ;
#138 = CARTESIAN_POINT ( 'NONE',  ( 6.249999999999998200, -8.750000000000001800, -0.5000000000000000000 ) ) ;
#139 = APPROVAL_PERSON_ORGANIZATION ( #85, #117, #70 ) ;
#140 = DIRECTION ( 'NONE',  ( -0.0000000000000000000, -0.0000000000000000000, -1.000000000000000000 ) ) ;
#141 = CC_DESIGN_PERSON_AND_ORGANIZATION_ASSIGNMENT ( #203, #235, ( #93 ) ) ;
#142 = DIRECTION ( 'NONE',  ( -0.0000000000000000000, -0.0000000000000000000, -1.000000000000000000 ) ) ;
#143 = PLANE ( 'NONE',  #165 ) ;
#144 = FACE_OUTER_BOUND ( 'NONE', #162, .T. ) ;
#145 = CARTESIAN_POINT ( 'NONE',  ( 6.249999999999998200, -8.750000000000001800, 0.5000000000000000000 ) ) ;
#146 = ORIENTED_EDGE ( 'NONE', *, *, #4, .T. ) ;
#147 = EDGE_LOOP ( 'NONE', ( #156, #146, #41, #73 ) ) ;
#148 = ORIENTED_EDGE ( 'NONE', *, *, #220, .T. ) ;
#149 = ADVANCED_FACE ( 'NONE', ( #144 ), #168, .F. ) ;
#150 = LINE ( 'NONE', #182, #152 ) ;
#151 = COORDINATED_UNIVERSAL_TIME_OFFSET ( 5, 0, .BEHIND. ) ;
#152 = VECTOR ( 'NONE', #37, 1000.000000000000000 ) ;
#153 = DIRECTION ( 'NONE',  ( -1.000000000000000000, 0.0000000000000000000, -0.0000000000000000000 ) ) ;
#154 = APPROVAL_PERSON_ORGANIZATION ( #163, #32, #52 ) ;
#155 = APPLICATION_CONTEXT ( 'configuration controlled 3d designs of mechanical parts and assemblies' ) ;
#156 = ORIENTED_EDGE ( 'NONE', *, *, #84, .T. ) ;
#157 = VERTEX_POINT ( 'NONE', #121 ) ;
#158 = CC_DESIGN_DATE_AND_TIME_ASSIGNMENT ( #20, #160, ( #93 ) ) ;
#159 =( LENGTH_UNIT ( ) NAMED_UNIT ( * ) SI_UNIT ( .MILLI., .METRE. ) );
#160 = DATE_TIME_ROLE ( 'creation_date' ) ;
#161 = VERTEX_POINT ( 'NONE', #118 ) ;
#162 = EDGE_LOOP ( 'NONE', ( #18, #38, #7, #197 ) ) ;
#163 = PERSON_AND_ORGANIZATION ( #94, #72 ) ;
#164 = DIRECTION ( 'NONE',  ( 0.0000000000000000000, 1.000000000000000000, 0.0000000000000000000 ) ) ;
#165 = AXIS2_PLACEMENT_3D ( 'NONE', #224, #116, #15 ) ;
#166 = PLANE ( 'NONE',  #216 ) ;
#167 = PERSON_AND_ORGANIZATION ( #94, #72 ) ;
#168 = PLANE ( 'NONE',  #237 ) ;
#169 = CALENDAR_DATE ( 2017, 10, 4 ) ;
#170 = DIRECTION ( 'NONE',  ( -1.000000000000000000, -0.0000000000000000000, -0.0000000000000000000 ) ) ;
#171 = ADVANCED_BREP_SHAPE_REPRESENTATION ( 'Web Model 46604_46605', ( #13, #74 ), #11 ) ;
#172 = LOCAL_TIME ( 11, 59, 15.00000000000000000, #151 ) ;
#173 = DATE_AND_TIME ( #89, #112 ) ;
#174 = ADVANCED_FACE ( 'NONE', ( #229 ), #12, .F. ) ;
#175 = PRODUCT_DEFINITION_FORMATION_WITH_SPECIFIED_SOURCE ( 'ANY', '', #25, .NOT_KNOWN. ) ;
#176 = ORIENTED_EDGE ( 'NONE', *, *, #227, .T. ) ;
#177 = LOCAL_TIME ( 11, 59, 15.00000000000000000, #29 ) ;
#178 = PERSON_AND_ORGANIZATION_ROLE ( 'design_supplier' ) ;
#179 = ORIENTED_EDGE ( 'NONE', *, *, #220, .F. ) ;
#180 = APPROVAL_DATE_TIME ( #233, #32 ) ;
#181 = CARTESIAN_POINT ( 'NONE',  ( -6.250000000000001800, -8.750000000000001800, 0.5000000000000000000 ) ) ;
#182 = CARTESIAN_POINT ( 'NONE',  ( -6.250000000000001800, -8.750000000000001800, -0.5000000000000000000 ) ) ;
#183 = DIRECTION ( 'NONE',  ( 1.000000000000000000, 0.0000000000000000000, 0.0000000000000000000 ) ) ;
#184 =( NAMED_UNIT ( * ) PLANE_ANGLE_UNIT ( ) SI_UNIT ( $, .RADIAN. ) );
#185 = DIRECTION ( 'NONE',  ( -0.0000000000000000000, -1.000000000000000000, -0.0000000000000000000 ) ) ;
#186 = DATE_AND_TIME ( #79, #109 ) ;
#187 = DESIGN_CONTEXT ( 'detailed design', #155, 'design' ) ;
#188 = PERSON_AND_ORGANIZATION ( #94, #72 ) ;
#189 = APPROVAL ( #215, 'UNSPECIFIED' ) ;
#190 = VECTOR ( 'NONE', #170, 1000.000000000000000 ) ;
#191 = CARTESIAN_POINT ( 'NONE',  ( -6.250000000000001800, 8.749999999999998200, 0.5000000000000000000 ) ) ;
#192 =( NAMED_UNIT ( * ) SI_UNIT ( $, .STERADIAN. ) SOLID_ANGLE_UNIT ( ) );
#193 = VECTOR ( 'NONE', #142, 1000.000000000000000 ) ;
#194 = AXIS2_PLACEMENT_3D ( 'NONE', #48, #60, #153 ) ;
#195 = VERTEX_POINT ( 'NONE', #90 ) ;
#196 = LINE ( 'NONE', #191, #190 ) ;
#197 = ORIENTED_EDGE ( 'NONE', *, *, #55, .T. ) ;
#198 = ORIENTED_EDGE ( 'NONE', *, *, #76, .F. ) ;
#199 = DIRECTION ( 'NONE',  ( 0.0000000000000000000, 0.0000000000000000000, -1.000000000000000000 ) ) ;
#200 = CC_DESIGN_APPROVAL ( #189, ( #175 ) ) ;
#201 = CARTESIAN_POINT ( 'NONE',  ( 0.0000000000000000000, 0.0000000000000000000, 0.0000000000000000000 ) ) ;
#202 = EDGE_LOOP ( 'NONE', ( #176, #23, #88, #217 ) ) ;
#203 = PERSON_AND_ORGANIZATION ( #94, #72 ) ;
#204 = CARTESIAN_POINT ( 'NONE',  ( 6.249999999999998200, 8.749999999999998200, 0.5000000000000000000 ) ) ;
#205 = ORIENTED_EDGE ( 'NONE', *, *, #65, .T. ) ;
#206 = EDGE_CURVE ( 'NONE', #161, #129, #150, .T. ) ;
#207 = APPROVAL_DATE_TIME ( #186, #189 ) ;
#208 = CC_DESIGN_PERSON_AND_ORGANIZATION_ASSIGNMENT ( #188, #226, ( #175 ) ) ;
#209 = CARTESIAN_POINT ( 'NONE',  ( -6.250000000000001800, -8.750000000000001800, 0.5000000000000000000 ) ) ;
#210 = VECTOR ( 'NONE', #218, 1000.000000000000000 ) ;
#211 = DIRECTION ( 'NONE',  ( -0.0000000000000000000, -0.0000000000000000000, -1.000000000000000000 ) ) ;
#212 = UNCERTAINTY_MEASURE_WITH_UNIT (LENGTH_MEASURE( 1.000000000000000100E-005 ), #159, 'distance_accuracy_value', 'NONE');
#213 = CARTESIAN_POINT ( 'NONE',  ( 6.249999999999998200, 8.749999999999998200, -0.5000000000000000000 ) ) ;
#214 = SHAPE_DEFINITION_REPRESENTATION ( #91, #171 ) ;
#215 = APPROVAL_STATUS ( 'not_yet_approved' ) ;
#216 = AXIS2_PLACEMENT_3D ( 'NONE', #56, #225, #2 ) ;
#217 = ORIENTED_EDGE ( 'NONE', *, *, #30, .T. ) ;
#218 = DIRECTION ( 'NONE',  ( 1.000000000000000000, 0.0000000000000000000, 0.0000000000000000000 ) ) ;
#219 = FACE_OUTER_BOUND ( 'NONE', #124, .T. ) ;
#220 = EDGE_CURVE ( 'NONE', #80, #195, #98, .T. ) ;
#221 = CC_DESIGN_PERSON_AND_ORGANIZATION_ASSIGNMENT ( #34, #178, ( #175 ) ) ;
#222 = FACE_OUTER_BOUND ( 'NONE', #147, .T. ) ;
#223 = DIRECTION ( 'NONE',  ( -1.000000000000000000, 0.0000000000000000000, -0.0000000000000000000 ) ) ;
#224 = CARTESIAN_POINT ( 'NONE',  ( -6.250000000000001800, -8.750000000000001800, 0.5000000000000000000 ) ) ;
#225 = DIRECTION ( 'NONE',  ( 0.0000000000000000000, -1.000000000000000000, 0.0000000000000000000 ) ) ;
#226 = PERSON_AND_ORGANIZATION_ROLE ( 'creator' ) ;
#227 = EDGE_CURVE ( 'NONE', #47, #161, #22, .T. ) ;
#228 = CARTESIAN_POINT ( 'NONE',  ( -6.250000000000001800, -8.750000000000001800, 0.5000000000000000000 ) ) ;
#229 = FACE_OUTER_BOUND ( 'NONE', #96, .T. ) ;
#230 = SECURITY_CLASSIFICATION ( '', '', #33 ) ;
#231 = APPLICATION_CONTEXT ( 'configuration controlled 3d designs of mechanical parts and assemblies' ) ;
#232 = VECTOR ( 'NONE', #68, 1000.000000000000000 ) ;
#233 = DATE_AND_TIME ( #62, #177 ) ;
#234 = DATE_TIME_ROLE ( 'classification_date' ) ;
#235 = PERSON_AND_ORGANIZATION_ROLE ( 'creator' ) ;
#236 = VECTOR ( 'NONE', #107, 1000.000000000000000 ) ;
#237 = AXIS2_PLACEMENT_3D ( 'NONE', #132, #111, #199 ) ;
ENDSEC;
END-ISO-10303-21;
