ISO-10303-21;
HEADER;
FILE_DESCRIPTION (( 'STEP AP203' ),
    '1' );
FILE_NAME ('Web Model 12668_12668.step',
    '2019-04-09T18:55:10',
    ( '' ),
    ( '' ),
    'SwSTEP 2.0',
    'SolidWorks 2018',
    '' );
FILE_SCHEMA (( 'CONFIG_CONTROL_DESIGN' ));
ENDSEC;

DATA;
#1 = CC_DESIGN_PERSON_AND_ORGANIZATION_ASSIGNMENT ( #121, #233, ( #184 ) ) ;
#2 = APPROVAL_DATE_TIME ( #149, #220 ) ;
#3 = VERTEX_POINT ( 'NONE', #47 ) ;
#4 = ADVANCED_FACE ( 'NONE', ( #24 ), #152, .F. ) ;
#5 = EDGE_CURVE ( 'NONE', #179, #201, #19, .T. ) ;
#6 = VECTOR ( 'NONE', #155, 1000.000000000000000 ) ;
#7 = DIRECTION ( 'NONE',  ( 1.000000000000000000, 0.0000000000000000000, 0.0000000000000000000 ) ) ;
#8 = PERSON_AND_ORGANIZATION ( #75, #185 ) ;
#9 = APPROVAL_DATE_TIME ( #186, #26 ) ;
#10 = CARTESIAN_POINT ( 'NONE',  ( -4.999999999999999112, -5.000000000000002665, -0.3499999999999999778 ) ) ;
#11 = DIRECTION ( 'NONE',  ( 1.000000000000000000, 1.734723475976807094E-16, -0.0000000000000000000 ) ) ;
#12 = APPLICATION_PROTOCOL_DEFINITION ( 'international standard', 'config_control_design', 1994, #13 ) ;
#13 = APPLICATION_CONTEXT ( 'configuration controlled 3d designs of mechanical parts and assemblies' ) ;
#14 = CARTESIAN_POINT ( 'NONE',  ( 5.000000000000000888, -5.000000000000000888, 0.3499999999999999778 ) ) ;
#15 = MANIFOLD_SOLID_BREP ( 'Boss-Extrude1', #131 ) ;
#16 = COORDINATED_UNIVERSAL_TIME_OFFSET ( 5, 0, .BEHIND. ) ;
#17 = CALENDAR_DATE ( 2019, 9, 4 ) ;
#18 = AXIS2_PLACEMENT_3D ( 'NONE', #174, #194, #117 ) ;
#19 = LINE ( 'NONE', #212, #183 ) ;
#20 = ADVANCED_FACE ( 'NONE', ( #227 ), #80, .T. ) ;
#21 = PERSON_AND_ORGANIZATION ( #75, #185 ) ;
#22 = LINE ( 'NONE', #28, #91 ) ;
#23 = APPROVAL ( #195, 'UNSPECIFIED' ) ;
#24 = FACE_OUTER_BOUND ( 'NONE', #145, .T. ) ;
#25 = DIRECTION ( 'NONE',  ( 1.000000000000000000, 0.0000000000000000000, -0.0000000000000000000 ) ) ;
#26 = APPROVAL ( #139, 'UNSPECIFIED' ) ;
#27 =( NAMED_UNIT ( * ) PLANE_ANGLE_UNIT ( ) SI_UNIT ( $, .RADIAN. ) );
#28 = CARTESIAN_POINT ( 'NONE',  ( 5.000000000000000888, 5.000000000000000000, 0.3499999999999999778 ) ) ;
#29 = SECURITY_CLASSIFICATION_LEVEL ( 'unclassified' ) ;
#30 = LINE ( 'NONE', #228, #6 ) ;
#31 = COORDINATED_UNIVERSAL_TIME_OFFSET ( 5, 0, .BEHIND. ) ;
#32 =( GEOMETRIC_REPRESENTATION_CONTEXT ( 3 ) GLOBAL_UNCERTAINTY_ASSIGNED_CONTEXT ( ( #163 ) ) GLOBAL_UNIT_ASSIGNED_CONTEXT ( ( #136, #27, #192 ) ) REPRESENTATION_CONTEXT ( 'NONE', 'WORKASPACE' ) );
#33 = CARTESIAN_POINT ( 'NONE',  ( 5.000000000000000888, 5.000000000000000000, 0.3499999999999999778 ) ) ;
#34 = PERSON_AND_ORGANIZATION_ROLE ( 'creator' ) ;
#35 = PLANE ( 'NONE',  #54 ) ;
#36 = VERTEX_POINT ( 'NONE', #154 ) ;
#37 = CC_DESIGN_APPROVAL ( #23, ( #181 ) ) ;
#38 = LINE ( 'NONE', #157, #164 ) ;
#39 = VERTEX_POINT ( 'NONE', #171 ) ;
#40 = EDGE_CURVE ( 'NONE', #179, #190, #223, .T. ) ;
#41 = EDGE_LOOP ( 'NONE', ( #169, #161, #141, #175 ) ) ;
#42 = AXIS2_PLACEMENT_3D ( 'NONE', #109, #191, #97 ) ;
#43 = LINE ( 'NONE', #48, #235 ) ;
#44 = APPLICATION_PROTOCOL_DEFINITION ( 'international standard', 'config_control_design', 1994, #193 ) ;
#45 = CARTESIAN_POINT ( 'NONE',  ( 0.0000000000000000000, 0.0000000000000000000, -0.3499999999999999778 ) ) ;
#46 = PRODUCT_DEFINITION_FORMATION_WITH_SPECIFIED_SOURCE ( 'ANY', '', #184, .NOT_KNOWN. ) ;
#47 = CARTESIAN_POINT ( 'NONE',  ( 5.000000000000000888, 5.000000000000000000, -0.3499999999999999778 ) ) ;
#48 = CARTESIAN_POINT ( 'NONE',  ( -4.999999999999999112, -5.000000000000002665, -0.3499999999999999778 ) ) ;
#49 = DIRECTION ( 'NONE',  ( -0.0000000000000000000, -1.000000000000000000, -0.0000000000000000000 ) ) ;
#50 = VECTOR ( 'NONE', #11, 1000.000000000000000 ) ;
#51 = ORIENTED_EDGE ( 'NONE', *, *, #95, .T. ) ;
#52 = EDGE_CURVE ( 'NONE', #39, #36, #98, .T. ) ;
#53 = CC_DESIGN_APPROVAL ( #220, ( #200 ) ) ;
#54 = AXIS2_PLACEMENT_3D ( 'NONE', #160, #232, #219 ) ;
#55 = ADVANCED_FACE ( 'NONE', ( #70 ), #135, .F. ) ;
#56 = ORIENTED_EDGE ( 'NONE', *, *, #226, .T. ) ;
#57 = APPROVAL_PERSON_ORGANIZATION ( #112, #26, #85 ) ;
#58 = EDGE_LOOP ( 'NONE', ( #151, #63, #178, #51 ) ) ;
#59 = EDGE_CURVE ( 'NONE', #190, #39, #22, .T. ) ;
#60 = CC_DESIGN_PERSON_AND_ORGANIZATION_ASSIGNMENT ( #130, #118, ( #181 ) ) ;
#61 = DIRECTION ( 'NONE',  ( -0.0000000000000000000, -0.0000000000000000000, -1.000000000000000000 ) ) ;
#62 = DATE_AND_TIME ( #106, #72 ) ;
#63 = ORIENTED_EDGE ( 'NONE', *, *, #88, .F. ) ;
#64 = CARTESIAN_POINT ( 'NONE',  ( 5.000000000000000888, 5.000000000000000000, 0.3499999999999999778 ) ) ;
#65 = CARTESIAN_POINT ( 'NONE',  ( 0.0000000000000000000, 0.0000000000000000000, 0.0000000000000000000 ) ) ;
#66 = CALENDAR_DATE ( 2019, 9, 4 ) ;
#67 = APPROVAL_PERSON_ORGANIZATION ( #168, #220, #116 ) ;
#68 = ORIENTED_EDGE ( 'NONE', *, *, #142, .F. ) ;
#69 = CC_DESIGN_DATE_AND_TIME_ASSIGNMENT ( #62, #100, ( #200 ) ) ;
#70 = FACE_OUTER_BOUND ( 'NONE', #147, .T. ) ;
#71 = CC_DESIGN_DATE_AND_TIME_ASSIGNMENT ( #125, #114, ( #181 ) ) ;
#72 = LOCAL_TIME ( 14, 55, 10.00000000000000000, #137 ) ;
#73 = ADVANCED_FACE ( 'NONE', ( #237 ), #94, .F. ) ;
#74 = VERTEX_POINT ( 'NONE', #213 ) ;
#75 = PERSON ( 'UNSPECIFIED', 'UNSPECIFIED', 'UNSPECIFIED', ('UNSPECIFIED'), ('UNSPECIFIED'), ('UNSPECIFIED') ) ;
#76 = FACE_OUTER_BOUND ( 'NONE', #41, .T. ) ;
#77 = CC_DESIGN_PERSON_AND_ORGANIZATION_ASSIGNMENT ( #8, #180, ( #46 ) ) ;
#78 = COORDINATED_UNIVERSAL_TIME_OFFSET ( 5, 0, .BEHIND. ) ;
#79 = VERTEX_POINT ( 'NONE', #10 ) ;
#80 = PLANE ( 'NONE',  #42 ) ;
#81 = EDGE_CURVE ( 'NONE', #3, #74, #30, .T. ) ;
#82 = VECTOR ( 'NONE', #208, 1000.000000000000000 ) ;
#83 = DIRECTION ( 'NONE',  ( 0.0000000000000000000, 0.0000000000000000000, 1.000000000000000000 ) ) ;
#84 = ADVANCED_BREP_SHAPE_REPRESENTATION ( 'Web Model 12668_12668', ( #15, #129 ), #32 ) ;
#85 = APPROVAL_ROLE ( '' ) ;
#86 = CARTESIAN_POINT ( 'NONE',  ( -4.999999999999999112, -5.000000000000002665, 0.3499999999999999778 ) ) ;
#87 = EDGE_LOOP ( 'NONE', ( #211, #120, #222, #134 ) ) ;
#88 = EDGE_CURVE ( 'NONE', #39, #74, #38, .T. ) ;
#89 = ADVANCED_FACE ( 'NONE', ( #76 ), #124, .F. ) ;
#90 = LINE ( 'NONE', #33, #215 ) ;
#91 = VECTOR ( 'NONE', #170, 1000.000000000000000 ) ;
#92 = ORIENTED_EDGE ( 'NONE', *, *, #217, .F. ) ;
#93 = DIRECTION ( 'NONE',  ( 0.0000000000000000000, 0.0000000000000000000, -1.000000000000000000 ) ) ;
#94 = PLANE ( 'NONE',  #18 ) ;
#95 = EDGE_CURVE ( 'NONE', #190, #3, #90, .T. ) ;
#96 = APPROVAL_STATUS ( 'not_yet_approved' ) ;
#97 = DIRECTION ( 'NONE',  ( 1.000000000000000000, 0.0000000000000000000, -0.0000000000000000000 ) ) ;
#98 = LINE ( 'NONE', #176, #82 ) ;
#99 = DIRECTION ( 'NONE',  ( -0.0000000000000000000, -0.0000000000000000000, -1.000000000000000000 ) ) ;
#100 = DATE_TIME_ROLE ( 'classification_date' ) ;
#101 = FACE_OUTER_BOUND ( 'NONE', #133, .T. ) ;
#102 = DIRECTION ( 'NONE',  ( -0.0000000000000000000, -0.0000000000000000000, -1.000000000000000000 ) ) ;
#103 = APPROVAL_DATE_TIME ( #159, #23 ) ;
#104 = LINE ( 'NONE', #86, #140 ) ;
#105 = LOCAL_TIME ( 14, 55, 10.00000000000000000, #236 ) ;
#106 = CALENDAR_DATE ( 2019, 9, 4 ) ;
#107 = ORIENTED_EDGE ( 'NONE', *, *, #148, .F. ) ;
#108 = APPROVAL_PERSON_ORGANIZATION ( #165, #23, #196 ) ;
#109 = CARTESIAN_POINT ( 'NONE',  ( 0.0000000000000000000, 0.0000000000000000000, 0.3499999999999999778 ) ) ;
#110 = DIRECTION ( 'NONE',  ( 0.0000000000000000000, -0.0000000000000000000, 1.000000000000000000 ) ) ;
#111 = PRODUCT_DEFINITION_SHAPE ( 'NONE', 'NONE',  #181 ) ;
#112 = PERSON_AND_ORGANIZATION ( #75, #185 ) ;
#113 = ORIENTED_EDGE ( 'NONE', *, *, #88, .T. ) ;
#114 = DATE_TIME_ROLE ( 'creation_date' ) ;
#115 = DIRECTION ( 'NONE',  ( 0.0000000000000000000, 1.000000000000000000, 0.0000000000000000000 ) ) ;
#116 = APPROVAL_ROLE ( '' ) ;
#117 = DIRECTION ( 'NONE',  ( 1.000000000000000000, 2.602085213965210642E-16, 0.0000000000000000000 ) ) ;
#118 = PERSON_AND_ORGANIZATION_ROLE ( 'creator' ) ;
#119 = CARTESIAN_POINT ( 'NONE',  ( 5.000000000000000888, -5.000000000000000888, -0.3499999999999999778 ) ) ;
#120 = ORIENTED_EDGE ( 'NONE', *, *, #142, .T. ) ;
#121 = PERSON_AND_ORGANIZATION ( #75, #185 ) ;
#122 = MECHANICAL_CONTEXT ( 'NONE', #193, 'mechanical' ) ;
#123 = CARTESIAN_POINT ( 'NONE',  ( 5.000000000000000888, -5.000000000000000888, 0.3499999999999999778 ) ) ;
#124 = PLANE ( 'NONE',  #206 ) ;
#125 = DATE_AND_TIME ( #224, #189 ) ;
#126 = ORIENTED_EDGE ( 'NONE', *, *, #226, .F. ) ;
#127 = ORIENTED_EDGE ( 'NONE', *, *, #5, .F. ) ;
#128 = LOCAL_TIME ( 14, 55, 10.00000000000000000, #31 ) ;
#129 = AXIS2_PLACEMENT_3D ( 'NONE', #65, #229, #7 ) ;
#130 = PERSON_AND_ORGANIZATION ( #75, #185 ) ;
#131 = CLOSED_SHELL ( 'NONE', ( #4, #167, #89, #73, #20, #55 ) ) ;
#132 = ORIENTED_EDGE ( 'NONE', *, *, #205, .F. ) ;
#133 = EDGE_LOOP ( 'NONE', ( #153, #127, #68, #221 ) ) ;
#134 = ORIENTED_EDGE ( 'NONE', *, *, #59, .T. ) ;
#135 = PLANE ( 'NONE',  #162 ) ;
#136 =( LENGTH_UNIT ( ) NAMED_UNIT ( * ) SI_UNIT ( .MILLI., .METRE. ) );
#137 = COORDINATED_UNIVERSAL_TIME_OFFSET ( 5, 0, .BEHIND. ) ;
#138 = VECTOR ( 'NONE', #115, 1000.000000000000000 ) ;
#139 = APPROVAL_STATUS ( 'not_yet_approved' ) ;
#140 = VECTOR ( 'NONE', #99, 1000.000000000000000 ) ;
#141 = ORIENTED_EDGE ( 'NONE', *, *, #40, .F. ) ;
#142 = EDGE_CURVE ( 'NONE', #36, #179, #158, .T. ) ;
#143 = PRODUCT_RELATED_PRODUCT_CATEGORY ( 'detail', '', ( #184 ) ) ;
#144 = SHAPE_DEFINITION_REPRESENTATION ( #111, #84 ) ;
#145 = EDGE_LOOP ( 'NONE', ( #56, #92, #204, #113 ) ) ;
#146 = CC_DESIGN_APPROVAL ( #26, ( #46 ) ) ;
#147 = EDGE_LOOP ( 'NONE', ( #126, #225, #107, #132 ) ) ;
#148 = EDGE_CURVE ( 'NONE', #201, #3, #150, .T. ) ;
#149 = DATE_AND_TIME ( #210, #203 ) ;
#150 = LINE ( 'NONE', #231, #207 ) ;
#151 = ORIENTED_EDGE ( 'NONE', *, *, #81, .T. ) ;
#152 = PLANE ( 'NONE',  #166 ) ;
#153 = ORIENTED_EDGE ( 'NONE', *, *, #205, .T. ) ;
#154 = CARTESIAN_POINT ( 'NONE',  ( -4.999999999999999112, -5.000000000000002665, 0.3499999999999999778 ) ) ;
#155 = DIRECTION ( 'NONE',  ( -1.000000000000000000, -2.602085213965210642E-16, 0.0000000000000000000 ) ) ;
#156 = DIRECTION ( 'NONE',  ( 1.000000000000000000, 1.734723475976807094E-16, -0.0000000000000000000 ) ) ;
#157 = CARTESIAN_POINT ( 'NONE',  ( -4.999999999999999112, 4.999999999999997335, 0.3499999999999999778 ) ) ;
#158 = LINE ( 'NONE', #14, #50 ) ;
#159 = DATE_AND_TIME ( #66, #128 ) ;
#160 = CARTESIAN_POINT ( 'NONE',  ( 5.000000000000000888, -5.000000000000000888, 0.3499999999999999778 ) ) ;
#161 = ORIENTED_EDGE ( 'NONE', *, *, #95, .F. ) ;
#162 = AXIS2_PLACEMENT_3D ( 'NONE', #45, #110, #25 ) ;
#163 = UNCERTAINTY_MEASURE_WITH_UNIT (LENGTH_MEASURE( 1.000000000000000082E-05 ), #136, 'distance_accuracy_value', 'NONE');
#164 = VECTOR ( 'NONE', #214, 1000.000000000000000 ) ;
#165 = PERSON_AND_ORGANIZATION ( #75, #185 ) ;
#166 = AXIS2_PLACEMENT_3D ( 'NONE', #173, #209, #93 ) ;
#167 = ADVANCED_FACE ( 'NONE', ( #101 ), #35, .F. ) ;
#168 = PERSON_AND_ORGANIZATION ( #75, #185 ) ;
#169 = ORIENTED_EDGE ( 'NONE', *, *, #148, .T. ) ;
#170 = DIRECTION ( 'NONE',  ( -1.000000000000000000, -2.602085213965210642E-16, 0.0000000000000000000 ) ) ;
#171 = CARTESIAN_POINT ( 'NONE',  ( -4.999999999999999112, 4.999999999999997335, 0.3499999999999999778 ) ) ;
#172 = CC_DESIGN_PERSON_AND_ORGANIZATION_ASSIGNMENT ( #199, #216, ( #200 ) ) ;
#173 = CARTESIAN_POINT ( 'NONE',  ( -4.999999999999999112, -5.000000000000002665, 0.3499999999999999778 ) ) ;
#174 = CARTESIAN_POINT ( 'NONE',  ( 5.000000000000000888, 5.000000000000000000, 0.3499999999999999778 ) ) ;
#175 = ORIENTED_EDGE ( 'NONE', *, *, #5, .T. ) ;
#176 = CARTESIAN_POINT ( 'NONE',  ( -4.999999999999999112, -5.000000000000002665, 0.3499999999999999778 ) ) ;
#177 = CARTESIAN_POINT ( 'NONE',  ( 5.000000000000000888, -5.000000000000000888, 0.3499999999999999778 ) ) ;
#178 = ORIENTED_EDGE ( 'NONE', *, *, #59, .F. ) ;
#179 = VERTEX_POINT ( 'NONE', #177 ) ;
#180 = PERSON_AND_ORGANIZATION_ROLE ( 'design_supplier' ) ;
#181 = PRODUCT_DEFINITION ( 'UNKNOWN', '', #46, #218 ) ;
#182 = DIRECTION ( 'NONE',  ( 0.0000000000000000000, 1.000000000000000000, 0.0000000000000000000 ) ) ;
#183 = VECTOR ( 'NONE', #61, 1000.000000000000000 ) ;
#184 = PRODUCT ( 'Web Model 12668_12668', 'Web Model 12668_12668', '', ( #122 ) ) ;
#185 = ORGANIZATION ( 'UNSPECIFIED', 'UNSPECIFIED', '' ) ;
#186 = DATE_AND_TIME ( #17, #105 ) ;
#187 = CC_DESIGN_PERSON_AND_ORGANIZATION_ASSIGNMENT ( #21, #34, ( #46 ) ) ;
#188 = LINE ( 'NONE', #119, #198 ) ;
#189 = LOCAL_TIME ( 14, 55, 10.00000000000000000, #78 ) ;
#190 = VERTEX_POINT ( 'NONE', #64 ) ;
#191 = DIRECTION ( 'NONE',  ( 0.0000000000000000000, -0.0000000000000000000, 1.000000000000000000 ) ) ;
#192 =( NAMED_UNIT ( * ) SI_UNIT ( $, .STERADIAN. ) SOLID_ANGLE_UNIT ( ) );
#193 = APPLICATION_CONTEXT ( 'configuration controlled 3d designs of mechanical parts and assemblies' ) ;
#194 = DIRECTION ( 'NONE',  ( 2.602085213965210642E-16, -1.000000000000000000, 0.0000000000000000000 ) ) ;
#195 = APPROVAL_STATUS ( 'not_yet_approved' ) ;
#196 = APPROVAL_ROLE ( '' ) ;
#197 = DIRECTION ( 'NONE',  ( -1.000000000000000000, 0.0000000000000000000, 0.0000000000000000000 ) ) ;
#198 = VECTOR ( 'NONE', #156, 1000.000000000000000 ) ;
#199 = PERSON_AND_ORGANIZATION ( #75, #185 ) ;
#200 = SECURITY_CLASSIFICATION ( '', '', #29 ) ;
#201 = VERTEX_POINT ( 'NONE', #234 ) ;
#202 = CC_DESIGN_SECURITY_CLASSIFICATION ( #200, ( #46 ) ) ;
#203 = LOCAL_TIME ( 14, 55, 10.00000000000000000, #16 ) ;
#204 = ORIENTED_EDGE ( 'NONE', *, *, #52, .F. ) ;
#205 = EDGE_CURVE ( 'NONE', #79, #201, #188, .T. ) ;
#206 = AXIS2_PLACEMENT_3D ( 'NONE', #123, #197, #83 ) ;
#207 = VECTOR ( 'NONE', #182, 1000.000000000000000 ) ;
#208 = DIRECTION ( 'NONE',  ( -0.0000000000000000000, -1.000000000000000000, -0.0000000000000000000 ) ) ;
#209 = DIRECTION ( 'NONE',  ( 1.000000000000000000, 0.0000000000000000000, 0.0000000000000000000 ) ) ;
#210 = CALENDAR_DATE ( 2019, 9, 4 ) ;
#211 = ORIENTED_EDGE ( 'NONE', *, *, #52, .T. ) ;
#212 = CARTESIAN_POINT ( 'NONE',  ( 5.000000000000000888, -5.000000000000000888, 0.3499999999999999778 ) ) ;
#213 = CARTESIAN_POINT ( 'NONE',  ( -4.999999999999999112, 4.999999999999997335, -0.3499999999999999778 ) ) ;
#214 = DIRECTION ( 'NONE',  ( -0.0000000000000000000, -0.0000000000000000000, -1.000000000000000000 ) ) ;
#215 = VECTOR ( 'NONE', #102, 1000.000000000000000 ) ;
#216 = PERSON_AND_ORGANIZATION_ROLE ( 'classification_officer' ) ;
#217 = EDGE_CURVE ( 'NONE', #36, #79, #104, .T. ) ;
#218 = DESIGN_CONTEXT ( 'detailed design', #13, 'design' ) ;
#219 = DIRECTION ( 'NONE',  ( -1.000000000000000000, -1.734723475976807094E-16, 0.0000000000000000000 ) ) ;
#220 = APPROVAL ( #96, 'UNSPECIFIED' ) ;
#221 = ORIENTED_EDGE ( 'NONE', *, *, #217, .T. ) ;
#222 = ORIENTED_EDGE ( 'NONE', *, *, #40, .T. ) ;
#223 = LINE ( 'NONE', #230, #138 ) ;
#224 = CALENDAR_DATE ( 2019, 9, 4 ) ;
#225 = ORIENTED_EDGE ( 'NONE', *, *, #81, .F. ) ;
#226 = EDGE_CURVE ( 'NONE', #74, #79, #43, .T. ) ;
#227 = FACE_OUTER_BOUND ( 'NONE', #87, .T. ) ;
#228 = CARTESIAN_POINT ( 'NONE',  ( 5.000000000000000888, 5.000000000000000000, -0.3499999999999999778 ) ) ;
#229 = DIRECTION ( 'NONE',  ( 0.0000000000000000000, 0.0000000000000000000, 1.000000000000000000 ) ) ;
#230 = CARTESIAN_POINT ( 'NONE',  ( 5.000000000000000888, -5.000000000000000888, 0.3499999999999999778 ) ) ;
#231 = CARTESIAN_POINT ( 'NONE',  ( 5.000000000000000888, -5.000000000000000888, -0.3499999999999999778 ) ) ;
#232 = DIRECTION ( 'NONE',  ( -1.734723475976807094E-16, 1.000000000000000000, 0.0000000000000000000 ) ) ;
#233 = PERSON_AND_ORGANIZATION_ROLE ( 'design_owner' ) ;
#234 = CARTESIAN_POINT ( 'NONE',  ( 5.000000000000000888, -5.000000000000000888, -0.3499999999999999778 ) ) ;
#235 = VECTOR ( 'NONE', #49, 1000.000000000000000 ) ;
#236 = COORDINATED_UNIVERSAL_TIME_OFFSET ( 5, 0, .BEHIND. ) ;
#237 = FACE_OUTER_BOUND ( 'NONE', #58, .T. ) ;
ENDSEC;
END-ISO-10303-21;
