ISO-10303-21;
HEADER;
FILE_DESCRIPTION (( 'STEP AP203' ),
    '1' );
FILE_NAME ('Web Model 46609_45325.step',
    '2017-04-10T17:56:55',
    ( '' ),
    ( '' ),
    'SwSTEP 2.0',
    'SolidWorks 2016',
    '' );
FILE_SCHEMA (( 'CONFIG_CONTROL_DESIGN' ));
ENDSEC;

DATA;
#1 = SHAPE_DEFINITION_REPRESENTATION ( #234, #16 ) ;
#2 = FACE_OUTER_BOUND ( 'NONE', #26, .T. ) ;
#3 = ORIENTED_EDGE ( 'NONE', *, *, #202, .T. ) ;
#4 = LOCAL_TIME ( 13, 56, 55.00000000000000000, #214 ) ;
#5 = PERSON_AND_ORGANIZATION ( #155, #135 ) ;
#6 = ORIENTED_EDGE ( 'NONE', *, *, #237, .F. ) ;
#7 = VERTEX_POINT ( 'NONE', #102 ) ;
#8 = CC_DESIGN_PERSON_AND_ORGANIZATION_ASSIGNMENT ( #167, #143, ( #110 ) ) ;
#9 = LINE ( 'NONE', #62, #114 ) ;
#10 = ORIENTED_EDGE ( 'NONE', *, *, #170, .T. ) ;
#11 = AXIS2_PLACEMENT_3D ( 'NONE', #94, #232, #187 ) ;
#12 =( GEOMETRIC_REPRESENTATION_CONTEXT ( 3 ) GLOBAL_UNCERTAINTY_ASSIGNED_CONTEXT ( ( #162 ) ) GLOBAL_UNIT_ASSIGNED_CONTEXT ( ( #97, #146, #164 ) ) REPRESENTATION_CONTEXT ( 'NONE', 'WORKASPACE' ) );
#13 = VERTEX_POINT ( 'NONE', #20 ) ;
#14 = DIRECTION ( 'NONE',  ( 0.0000000000000000000, 1.000000000000000000, 0.0000000000000000000 ) ) ;
#15 = VECTOR ( 'NONE', #151, 1000.000000000000000 ) ;
#16 = ADVANCED_BREP_SHAPE_REPRESENTATION ( 'Web Model 46609_45325', ( #119, #125 ), #12 ) ;
#17 = CARTESIAN_POINT ( 'NONE',  ( 17.50000000000000000, 17.50000000000000000, 0.5000000000000000000 ) ) ;
#18 = APPROVAL_STATUS ( 'not_yet_approved' ) ;
#19 = EDGE_CURVE ( 'NONE', #77, #13, #9, .T. ) ;
#20 = CARTESIAN_POINT ( 'NONE',  ( -17.50000000000000000, -17.50000000000000000, 0.5000000000000000000 ) ) ;
#21 = ORIENTED_EDGE ( 'NONE', *, *, #22, .F. ) ;
#22 = EDGE_CURVE ( 'NONE', #77, #7, #141, .T. ) ;
#23 = COORDINATED_UNIVERSAL_TIME_OFFSET ( 5, 0, .BEHIND. ) ;
#24 = PLANE ( 'NONE',  #112 ) ;
#25 = ORIENTED_EDGE ( 'NONE', *, *, #156, .T. ) ;
#26 = EDGE_LOOP ( 'NONE', ( #68, #184, #124, #3 ) ) ;
#27 = VERTEX_POINT ( 'NONE', #131 ) ;
#28 = APPROVAL_DATE_TIME ( #40, #109 ) ;
#29 = DIRECTION ( 'NONE',  ( -1.000000000000000000, -0.0000000000000000000, -0.0000000000000000000 ) ) ;
#30 = CARTESIAN_POINT ( 'NONE',  ( 17.50000000000000000, 17.50000000000000000, -0.5000000000000000000 ) ) ;
#31 = CC_DESIGN_SECURITY_CLASSIFICATION ( #142, ( #168 ) ) ;
#32 = PERSON_AND_ORGANIZATION ( #155, #135 ) ;
#33 = CARTESIAN_POINT ( 'NONE',  ( -17.50000000000000000, 17.50000000000000000, 0.5000000000000000000 ) ) ;
#34 = EDGE_CURVE ( 'NONE', #52, #77, #60, .T. ) ;
#35 = LOCAL_TIME ( 13, 56, 55.00000000000000000, #23 ) ;
#36 = DIRECTION ( 'NONE',  ( 1.000000000000000000, 0.0000000000000000000, 0.0000000000000000000 ) ) ;
#37 = DATE_TIME_ROLE ( 'creation_date' ) ;
#38 = DIRECTION ( 'NONE',  ( -0.0000000000000000000, 0.0000000000000000000, 1.000000000000000000 ) ) ;
#39 = PLANE ( 'NONE',  #196 ) ;
#40 = DATE_AND_TIME ( #58, #172 ) ;
#41 = CARTESIAN_POINT ( 'NONE',  ( 17.50000000000000000, -17.50000000000000000, -0.5000000000000000000 ) ) ;
#42 = AXIS2_PLACEMENT_3D ( 'NONE', #221, #38, #213 ) ;
#43 = ORIENTED_EDGE ( 'NONE', *, *, #163, .F. ) ;
#44 = VECTOR ( 'NONE', #107, 1000.000000000000000 ) ;
#45 = LINE ( 'NONE', #55, #207 ) ;
#46 = EDGE_LOOP ( 'NONE', ( #203, #185, #95, #10 ) ) ;
#47 = PRODUCT_RELATED_PRODUCT_CATEGORY ( 'detail', '', ( #136 ) ) ;
#48 = DIRECTION ( 'NONE',  ( 0.0000000000000000000, -0.0000000000000000000, -1.000000000000000000 ) ) ;
#49 = DIRECTION ( 'NONE',  ( 0.0000000000000000000, -1.000000000000000000, 0.0000000000000000000 ) ) ;
#50 = CC_DESIGN_APPROVAL ( #83, ( #142 ) ) ;
#51 = ORIENTED_EDGE ( 'NONE', *, *, #88, .T. ) ;
#52 = VERTEX_POINT ( 'NONE', #154 ) ;
#53 = AXIS2_PLACEMENT_3D ( 'NONE', #217, #178, #48 ) ;
#54 = ORIENTED_EDGE ( 'NONE', *, *, #22, .T. ) ;
#55 = CARTESIAN_POINT ( 'NONE',  ( -17.50000000000000000, -17.50000000000000000, 0.5000000000000000000 ) ) ;
#56 = PLANE ( 'NONE',  #53 ) ;
#57 = APPLICATION_PROTOCOL_DEFINITION ( 'international standard', 'config_control_design', 1994, #149 ) ;
#58 = CALENDAR_DATE ( 2017, 10, 4 ) ;
#59 = CC_DESIGN_PERSON_AND_ORGANIZATION_ASSIGNMENT ( #191, #73, ( #168 ) ) ;
#60 = LINE ( 'NONE', #116, #67 ) ;
#61 = DATE_AND_TIME ( #208, #35 ) ;
#62 = CARTESIAN_POINT ( 'NONE',  ( -17.50000000000000000, 17.50000000000000000, 0.5000000000000000000 ) ) ;
#63 = VECTOR ( 'NONE', #228, 1000.000000000000000 ) ;
#64 = ORIENTED_EDGE ( 'NONE', *, *, #209, .F. ) ;
#65 = DIRECTION ( 'NONE',  ( 0.0000000000000000000, 0.0000000000000000000, 1.000000000000000000 ) ) ;
#66 = EDGE_LOOP ( 'NONE', ( #148, #152, #129, #54 ) ) ;
#67 = VECTOR ( 'NONE', #29, 1000.000000000000000 ) ;
#68 = ORIENTED_EDGE ( 'NONE', *, *, #175, .T. ) ;
#69 = APPROVAL_STATUS ( 'not_yet_approved' ) ;
#70 = CARTESIAN_POINT ( 'NONE',  ( -17.50000000000000000, 17.50000000000000000, 0.5000000000000000000 ) ) ;
#71 = PERSON_AND_ORGANIZATION_ROLE ( 'design_supplier' ) ;
#72 = DIRECTION ( 'NONE',  ( 1.000000000000000000, 0.0000000000000000000, 0.0000000000000000000 ) ) ;
#73 = PERSON_AND_ORGANIZATION_ROLE ( 'creator' ) ;
#74 = DIRECTION ( 'NONE',  ( 1.000000000000000000, 0.0000000000000000000, 0.0000000000000000000 ) ) ;
#75 = VECTOR ( 'NONE', #126, 1000.000000000000000 ) ;
#76 = SECURITY_CLASSIFICATION_LEVEL ( 'unclassified' ) ;
#77 = VERTEX_POINT ( 'NONE', #113 ) ;
#78 = FACE_OUTER_BOUND ( 'NONE', #192, .T. ) ;
#79 = CARTESIAN_POINT ( 'NONE',  ( 0.0000000000000000000, 0.0000000000000000000, 0.0000000000000000000 ) ) ;
#80 = COORDINATED_UNIVERSAL_TIME_OFFSET ( 5, 0, .BEHIND. ) ;
#81 = PERSON_AND_ORGANIZATION ( #155, #135 ) ;
#82 = FACE_OUTER_BOUND ( 'NONE', #46, .T. ) ;
#83 = APPROVAL ( #104, 'UNSPECIFIED' ) ;
#84 = LINE ( 'NONE', #193, #15 ) ;
#85 = APPROVAL_PERSON_ORGANIZATION ( #105, #109, #227 ) ;
#86 = CC_DESIGN_PERSON_AND_ORGANIZATION_ASSIGNMENT ( #32, #127, ( #136 ) ) ;
#87 = LINE ( 'NONE', #210, #200 ) ;
#88 = EDGE_CURVE ( 'NONE', #198, #7, #138, .T. ) ;
#89 = DIRECTION ( 'NONE',  ( -1.000000000000000000, 0.0000000000000000000, 0.0000000000000000000 ) ) ;
#90 = DATE_TIME_ROLE ( 'classification_date' ) ;
#91 = ADVANCED_FACE ( 'NONE', ( #173 ), #56, .F. ) ;
#92 = CC_DESIGN_PERSON_AND_ORGANIZATION_ASSIGNMENT ( #230, #71, ( #168 ) ) ;
#93 = CARTESIAN_POINT ( 'NONE',  ( -17.50000000000000000, -17.50000000000000000, 0.5000000000000000000 ) ) ;
#94 = CARTESIAN_POINT ( 'NONE',  ( 0.0000000000000000000, 0.0000000000000000000, -0.5000000000000000000 ) ) ;
#95 = ORIENTED_EDGE ( 'NONE', *, *, #19, .T. ) ;
#96 = PERSON_AND_ORGANIZATION ( #155, #135 ) ;
#97 =( LENGTH_UNIT ( ) NAMED_UNIT ( * ) SI_UNIT ( .MILLI., .METRE. ) );
#98 = PLANE ( 'NONE',  #42 ) ;
#99 = DIRECTION ( 'NONE',  ( -0.0000000000000000000, 1.000000000000000000, -0.0000000000000000000 ) ) ;
#100 = CC_DESIGN_APPROVAL ( #161, ( #110 ) ) ;
#101 = FACE_OUTER_BOUND ( 'NONE', #223, .T. ) ;
#102 = CARTESIAN_POINT ( 'NONE',  ( -17.50000000000000000, 17.50000000000000000, -0.5000000000000000000 ) ) ;
#103 = VECTOR ( 'NONE', #99, 1000.000000000000000 ) ;
#104 = APPROVAL_STATUS ( 'not_yet_approved' ) ;
#105 = PERSON_AND_ORGANIZATION ( #155, #135 ) ;
#106 = FACE_OUTER_BOUND ( 'NONE', #66, .T. ) ;
#107 = DIRECTION ( 'NONE',  ( -0.0000000000000000000, 1.000000000000000000, -0.0000000000000000000 ) ) ;
#108 = ADVANCED_FACE ( 'NONE', ( #78 ), #24, .F. ) ;
#109 = APPROVAL ( #69, 'UNSPECIFIED' ) ;
#110 = PRODUCT_DEFINITION ( 'UNKNOWN', '', #168, #150 ) ;
#111 = CARTESIAN_POINT ( 'NONE',  ( -17.50000000000000000, 17.50000000000000000, -0.5000000000000000000 ) ) ;
#112 = AXIS2_PLACEMENT_3D ( 'NONE', #17, #89, #177 ) ;
#113 = CARTESIAN_POINT ( 'NONE',  ( -17.50000000000000000, 17.50000000000000000, 0.5000000000000000000 ) ) ;
#114 = VECTOR ( 'NONE', #219, 1000.000000000000000 ) ;
#115 = APPROVAL_DATE_TIME ( #61, #161 ) ;
#116 = CARTESIAN_POINT ( 'NONE',  ( -17.50000000000000000, 17.50000000000000000, 0.5000000000000000000 ) ) ;
#117 = DATE_AND_TIME ( #189, #215 ) ;
#118 = CC_DESIGN_PERSON_AND_ORGANIZATION_ASSIGNMENT ( #96, #134, ( #142 ) ) ;
#119 = MANIFOLD_SOLID_BREP ( 'Boss-Extrude1', #220 ) ;
#120 = DATE_AND_TIME ( #201, #211 ) ;
#121 = DIRECTION ( 'NONE',  ( -0.0000000000000000000, 0.0000000000000000000, -1.000000000000000000 ) ) ;
#122 = CC_DESIGN_DATE_AND_TIME_ASSIGNMENT ( #226, #90, ( #142 ) ) ;
#123 = ORIENTED_EDGE ( 'NONE', *, *, #34, .F. ) ;
#124 = ORIENTED_EDGE ( 'NONE', *, *, #170, .F. ) ;
#125 = AXIS2_PLACEMENT_3D ( 'NONE', #79, #65, #72 ) ;
#126 = DIRECTION ( 'NONE',  ( -0.0000000000000000000, -0.0000000000000000000, -1.000000000000000000 ) ) ;
#127 = PERSON_AND_ORGANIZATION_ROLE ( 'design_owner' ) ;
#128 = CARTESIAN_POINT ( 'NONE',  ( -17.50000000000000000, -17.50000000000000000, -0.5000000000000000000 ) ) ;
#129 = ORIENTED_EDGE ( 'NONE', *, *, #19, .F. ) ;
#130 = ORIENTED_EDGE ( 'NONE', *, *, #88, .F. ) ;
#131 = CARTESIAN_POINT ( 'NONE',  ( -17.50000000000000000, -17.50000000000000000, -0.5000000000000000000 ) ) ;
#132 = EDGE_CURVE ( 'NONE', #7, #27, #236, .T. ) ;
#133 = LINE ( 'NONE', #205, #188 ) ;
#134 = PERSON_AND_ORGANIZATION_ROLE ( 'classification_officer' ) ;
#135 = ORGANIZATION ( 'UNSPECIFIED', 'UNSPECIFIED', '' ) ;
#136 = PRODUCT ( 'Web Model 46609_45325', 'Web Model 46609_45325', '', ( #171 ) ) ;
#137 = VERTEX_POINT ( 'NONE', #176 ) ;
#138 = LINE ( 'NONE', #111, #63 ) ;
#139 = APPLICATION_PROTOCOL_DEFINITION ( 'international standard', 'config_control_design', 1994, #186 ) ;
#140 = DIRECTION ( 'NONE',  ( 1.000000000000000000, 0.0000000000000000000, -0.0000000000000000000 ) ) ;
#141 = LINE ( 'NONE', #70, #75 ) ;
#142 = SECURITY_CLASSIFICATION ( '', '', #76 ) ;
#143 = PERSON_AND_ORGANIZATION_ROLE ( 'creator' ) ;
#144 = PLANE ( 'NONE',  #158 ) ;
#145 = VERTEX_POINT ( 'NONE', #41 ) ;
#146 =( NAMED_UNIT ( * ) PLANE_ANGLE_UNIT ( ) SI_UNIT ( $, .RADIAN. ) );
#147 = LINE ( 'NONE', #166, #103 ) ;
#148 = ORIENTED_EDGE ( 'NONE', *, *, #132, .T. ) ;
#149 = APPLICATION_CONTEXT ( 'configuration controlled 3d designs of mechanical parts and assemblies' ) ;
#150 = DESIGN_CONTEXT ( 'detailed design', #149, 'design' ) ;
#151 = DIRECTION ( 'NONE',  ( -0.0000000000000000000, -0.0000000000000000000, -1.000000000000000000 ) ) ;
#152 = ORIENTED_EDGE ( 'NONE', *, *, #202, .F. ) ;
#153 = APPROVAL_PERSON_ORGANIZATION ( #81, #83, #235 ) ;
#154 = CARTESIAN_POINT ( 'NONE',  ( 17.50000000000000000, 17.50000000000000000, 0.5000000000000000000 ) ) ;
#155 = PERSON ( 'UNSPECIFIED', 'UNSPECIFIED', 'UNSPECIFIED', ('UNSPECIFIED'), ('UNSPECIFIED'), ('UNSPECIFIED') ) ;
#156 = EDGE_CURVE ( 'NONE', #137, #145, #87, .T. ) ;
#157 = LINE ( 'NONE', #197, #44 ) ;
#158 = AXIS2_PLACEMENT_3D ( 'NONE', #93, #14, #231 ) ;
#159 = ADVANCED_FACE ( 'NONE', ( #106 ), #39, .F. ) ;
#160 = ADVANCED_FACE ( 'NONE', ( #101 ), #182, .F. ) ;
#161 = APPROVAL ( #18, 'UNSPECIFIED' ) ;
#162 = UNCERTAINTY_MEASURE_WITH_UNIT (LENGTH_MEASURE( 1.000000000000000100E-005 ), #97, 'distance_accuracy_value', 'NONE');
#163 = EDGE_CURVE ( 'NONE', #137, #52, #157, .T. ) ;
#164 =( NAMED_UNIT ( * ) SI_UNIT ( $, .STERADIAN. ) SOLID_ANGLE_UNIT ( ) );
#165 = EDGE_LOOP ( 'NONE', ( #51, #21, #123, #180 ) ) ;
#166 = CARTESIAN_POINT ( 'NONE',  ( 17.50000000000000000, 17.50000000000000000, -0.5000000000000000000 ) ) ;
#167 = PERSON_AND_ORGANIZATION ( #155, #135 ) ;
#168 = PRODUCT_DEFINITION_FORMATION_WITH_SPECIFIED_SOURCE ( 'ANY', '', #136, .NOT_KNOWN. ) ;
#169 = APPROVAL_DATE_TIME ( #117, #83 ) ;
#170 = EDGE_CURVE ( 'NONE', #13, #137, #45, .T. ) ;
#171 = MECHANICAL_CONTEXT ( 'NONE', #186, 'mechanical' ) ;
#172 = LOCAL_TIME ( 13, 56, 55.00000000000000000, #212 ) ;
#173 = FACE_OUTER_BOUND ( 'NONE', #165, .T. ) ;
#174 = APPROVAL_ROLE ( '' ) ;
#175 = EDGE_CURVE ( 'NONE', #27, #145, #183, .T. ) ;
#176 = CARTESIAN_POINT ( 'NONE',  ( 17.50000000000000000, -17.50000000000000000, 0.5000000000000000000 ) ) ;
#177 = DIRECTION ( 'NONE',  ( 0.0000000000000000000, 0.0000000000000000000, 1.000000000000000000 ) ) ;
#178 = DIRECTION ( 'NONE',  ( 0.0000000000000000000, -1.000000000000000000, 0.0000000000000000000 ) ) ;
#179 = APPROVAL_PERSON_ORGANIZATION ( #5, #161, #174 ) ;
#180 = ORIENTED_EDGE ( 'NONE', *, *, #237, .T. ) ;
#181 = CC_DESIGN_APPROVAL ( #109, ( #168 ) ) ;
#182 = PLANE ( 'NONE',  #11 ) ;
#183 = LINE ( 'NONE', #128, #218 ) ;
#184 = ORIENTED_EDGE ( 'NONE', *, *, #156, .F. ) ;
#185 = ORIENTED_EDGE ( 'NONE', *, *, #34, .T. ) ;
#186 = APPLICATION_CONTEXT ( 'configuration controlled 3d designs of mechanical parts and assemblies' ) ;
#187 = DIRECTION ( 'NONE',  ( 1.000000000000000000, 0.0000000000000000000, 0.0000000000000000000 ) ) ;
#188 = VECTOR ( 'NONE', #204, 1000.000000000000000 ) ;
#189 = CALENDAR_DATE ( 2017, 10, 4 ) ;
#190 = CC_DESIGN_DATE_AND_TIME_ASSIGNMENT ( #120, #37, ( #110 ) ) ;
#191 = PERSON_AND_ORGANIZATION ( #155, #135 ) ;
#192 = EDGE_LOOP ( 'NONE', ( #222, #6, #43, #25 ) ) ;
#193 = CARTESIAN_POINT ( 'NONE',  ( -17.50000000000000000, -17.50000000000000000, 0.5000000000000000000 ) ) ;
#194 = DIRECTION ( 'NONE',  ( -0.0000000000000000000, -0.0000000000000000000, -1.000000000000000000 ) ) ;
#195 = COORDINATED_UNIVERSAL_TIME_OFFSET ( 5, 0, .BEHIND. ) ;
#196 = AXIS2_PLACEMENT_3D ( 'NONE', #33, #140, #121 ) ;
#197 = CARTESIAN_POINT ( 'NONE',  ( 17.50000000000000000, 17.50000000000000000, 0.5000000000000000000 ) ) ;
#198 = VERTEX_POINT ( 'NONE', #30 ) ;
#199 = ORIENTED_EDGE ( 'NONE', *, *, #132, .F. ) ;
#200 = VECTOR ( 'NONE', #194, 1000.000000000000000 ) ;
#201 = CALENDAR_DATE ( 2017, 10, 4 ) ;
#202 = EDGE_CURVE ( 'NONE', #13, #27, #84, .T. ) ;
#203 = ORIENTED_EDGE ( 'NONE', *, *, #163, .T. ) ;
#204 = DIRECTION ( 'NONE',  ( -0.0000000000000000000, -0.0000000000000000000, -1.000000000000000000 ) ) ;
#205 = CARTESIAN_POINT ( 'NONE',  ( 17.50000000000000000, 17.50000000000000000, 0.5000000000000000000 ) ) ;
#206 = VECTOR ( 'NONE', #49, 1000.000000000000000 ) ;
#207 = VECTOR ( 'NONE', #36, 1000.000000000000000 ) ;
#208 = CALENDAR_DATE ( 2017, 10, 4 ) ;
#209 = EDGE_CURVE ( 'NONE', #145, #198, #147, .T. ) ;
#210 = CARTESIAN_POINT ( 'NONE',  ( 17.50000000000000000, -17.50000000000000000, 0.5000000000000000000 ) ) ;
#211 = LOCAL_TIME ( 13, 56, 55.00000000000000000, #195 ) ;
#212 = COORDINATED_UNIVERSAL_TIME_OFFSET ( 5, 0, .BEHIND. ) ;
#213 = DIRECTION ( 'NONE',  ( 1.000000000000000000, 0.0000000000000000000, 0.0000000000000000000 ) ) ;
#214 = COORDINATED_UNIVERSAL_TIME_OFFSET ( 5, 0, .BEHIND. ) ;
#215 = LOCAL_TIME ( 13, 56, 55.00000000000000000, #80 ) ;
#216 = ADVANCED_FACE ( 'NONE', ( #82 ), #98, .T. ) ;
#217 = CARTESIAN_POINT ( 'NONE',  ( -17.50000000000000000, 17.50000000000000000, 0.5000000000000000000 ) ) ;
#218 = VECTOR ( 'NONE', #74, 1000.000000000000000 ) ;
#219 = DIRECTION ( 'NONE',  ( 0.0000000000000000000, -1.000000000000000000, 0.0000000000000000000 ) ) ;
#220 = CLOSED_SHELL ( 'NONE', ( #108, #91, #159, #233, #216, #160 ) ) ;
#221 = CARTESIAN_POINT ( 'NONE',  ( 0.0000000000000000000, 0.0000000000000000000, 0.5000000000000000000 ) ) ;
#222 = ORIENTED_EDGE ( 'NONE', *, *, #209, .T. ) ;
#223 = EDGE_LOOP ( 'NONE', ( #64, #225, #199, #130 ) ) ;
#224 = CARTESIAN_POINT ( 'NONE',  ( -17.50000000000000000, 17.50000000000000000, -0.5000000000000000000 ) ) ;
#225 = ORIENTED_EDGE ( 'NONE', *, *, #175, .F. ) ;
#226 = DATE_AND_TIME ( #229, #4 ) ;
#227 = APPROVAL_ROLE ( '' ) ;
#228 = DIRECTION ( 'NONE',  ( -1.000000000000000000, -0.0000000000000000000, -0.0000000000000000000 ) ) ;
#229 = CALENDAR_DATE ( 2017, 10, 4 ) ;
#230 = PERSON_AND_ORGANIZATION ( #155, #135 ) ;
#231 = DIRECTION ( 'NONE',  ( 0.0000000000000000000, -0.0000000000000000000, 1.000000000000000000 ) ) ;
#232 = DIRECTION ( 'NONE',  ( -0.0000000000000000000, 0.0000000000000000000, 1.000000000000000000 ) ) ;
#233 = ADVANCED_FACE ( 'NONE', ( #2 ), #144, .F. ) ;
#234 = PRODUCT_DEFINITION_SHAPE ( 'NONE', 'NONE',  #110 ) ;
#235 = APPROVAL_ROLE ( '' ) ;
#236 = LINE ( 'NONE', #224, #206 ) ;
#237 = EDGE_CURVE ( 'NONE', #52, #198, #133, .T. ) ;
ENDSEC;
END-ISO-10303-21;
