ISO-10303-21;
HEADER;
FILE_DESCRIPTION (( 'STEP AP203' ),
    '1' );
FILE_NAME ('Web Model 43368_43368.step',
    '2020-10-21T18:22:48',
    ( '' ),
    ( '' ),
    'SwSTEP 2.0',
    'SolidWorks 2018',
    '' );
FILE_SCHEMA (( 'CONFIG_CONTROL_DESIGN' ));
ENDSEC;

DATA;
#1 = MECHANICAL_CONTEXT ( 'NONE', #53, 'mechanical' ) ;
#2 = ORIENTED_EDGE ( 'NONE', *, *, #94, .T. ) ;
#3 = CC_DESIGN_APPROVAL ( #72, ( #102 ) ) ;
#4 = ORIENTED_EDGE ( 'NONE', *, *, #94, .F. ) ;
#5 = CARTESIAN_POINT ( 'NONE',  ( 0.0000000000000000000, 0.0000000000000000000, 2.000000000000000000 ) ) ;
#6 = MANIFOLD_SOLID_BREP ( 'Boss-Extrude1', #109 ) ;
#7 = ORIENTED_EDGE ( 'NONE', *, *, #152, .F. ) ;
#8 = PERSON_AND_ORGANIZATION ( #30, #17 ) ;
#9 = CC_DESIGN_DATE_AND_TIME_ASSIGNMENT ( #105, #132, ( #102 ) ) ;
#10 = PERSON_AND_ORGANIZATION ( #30, #17 ) ;
#11 = DATE_TIME_ROLE ( 'classification_date' ) ;
#12 = CARTESIAN_POINT ( 'NONE',  ( 0.0000000000000000000, 0.0000000000000000000, 2.000000000000000000 ) ) ;
#13 = DIRECTION ( 'NONE',  ( 1.000000000000000000, 0.0000000000000000000, 0.0000000000000000000 ) ) ;
#14 = DIRECTION ( 'NONE',  ( 1.000000000000000000, 0.0000000000000000000, 0.0000000000000000000 ) ) ;
#15 = PERSON_AND_ORGANIZATION_ROLE ( 'design_owner' ) ;
#16 = PERSON_AND_ORGANIZATION ( #30, #17 ) ;
#17 = ORGANIZATION ( 'UNSPECIFIED', 'UNSPECIFIED', '' ) ;
#18 = DESIGN_CONTEXT ( 'detailed design', #104, 'design' ) ;
#19 = ADVANCED_BREP_SHAPE_REPRESENTATION ( 'Web Model 43368_43368', ( #6, #122 ), #110 ) ;
#20 = CARTESIAN_POINT ( 'NONE',  ( 10.00000000000000000, 1.224646799147353256E-15, 2.000000000000000000 ) ) ;
#21 = DIRECTION ( 'NONE',  ( -0.0000000000000000000, -0.0000000000000000000, -1.000000000000000000 ) ) ;
#22 = DIRECTION ( 'NONE',  ( 1.000000000000000000, 0.0000000000000000000, -0.0000000000000000000 ) ) ;
#23 = COORDINATED_UNIVERSAL_TIME_OFFSET ( 5, 0, .BEHIND. ) ;
#24 = CALENDAR_DATE ( 2020, 21, 10 ) ;
#25 =( NAMED_UNIT ( * ) SI_UNIT ( $, .STERADIAN. ) SOLID_ANGLE_UNIT ( ) );
#26 = APPLICATION_PROTOCOL_DEFINITION ( 'international standard', 'config_control_design', 1994, #104 ) ;
#27 = AXIS2_PLACEMENT_3D ( 'NONE', #65, #103, #40 ) ;
#28 = CIRCLE ( 'NONE', #49, 10.00000000000000000 ) ;
#29 = LOCAL_TIME ( 14, 22, 48.00000000000000000, #73 ) ;
#30 = PERSON ( 'UNSPECIFIED', 'UNSPECIFIED', 'UNSPECIFIED', ('UNSPECIFIED'), ('UNSPECIFIED'), ('UNSPECIFIED') ) ;
#31 = EDGE_LOOP ( 'NONE', ( #4, #91, #99, #62 ) ) ;
#32 = CIRCLE ( 'NONE', #46, 10.00000000000000000 ) ;
#33 = CC_DESIGN_APPROVAL ( #133, ( #51 ) ) ;
#34 = EDGE_CURVE ( 'NONE', #95, #76, #32, .T. ) ;
#35 = PERSON_AND_ORGANIZATION ( #30, #17 ) ;
#36 = APPROVAL_ROLE ( '' ) ;
#37 = CARTESIAN_POINT ( 'NONE',  ( 10.00000000000000000, 1.224646799147353256E-15, 2.000000000000000000 ) ) ;
#38 = VECTOR ( 'NONE', #127, 1000.000000000000000 ) ;
#39 = SECURITY_CLASSIFICATION_LEVEL ( 'unclassified' ) ;
#40 = DIRECTION ( 'NONE',  ( 1.000000000000000000, 0.0000000000000000000, -0.0000000000000000000 ) ) ;
#41 = VERTEX_POINT ( 'NONE', #154 ) ;
#42 = COORDINATED_UNIVERSAL_TIME_OFFSET ( 5, 0, .BEHIND. ) ;
#43 = DIRECTION ( 'NONE',  ( 0.0000000000000000000, 0.0000000000000000000, 1.000000000000000000 ) ) ;
#44 = ORIENTED_EDGE ( 'NONE', *, *, #34, .T. ) ;
#45 = PERSON_AND_ORGANIZATION_ROLE ( 'creator' ) ;
#46 = AXIS2_PLACEMENT_3D ( 'NONE', #5, #137, #58 ) ;
#47 = COORDINATED_UNIVERSAL_TIME_OFFSET ( 5, 0, .BEHIND. ) ;
#48 = APPROVAL_DATE_TIME ( #160, #133 ) ;
#49 = AXIS2_PLACEMENT_3D ( 'NONE', #117, #43, #13 ) ;
#50 = EDGE_CURVE ( 'NONE', #41, #66, #166, .T. ) ;
#51 = SECURITY_CLASSIFICATION ( '', '', #39 ) ;
#52 = PLANE ( 'NONE',  #27 ) ;
#53 = APPLICATION_CONTEXT ( 'configuration controlled 3d designs of mechanical parts and assemblies' ) ;
#54 = ADVANCED_FACE ( 'NONE', ( #80 ), #121, .T. ) ;
#55 = PRODUCT ( 'Web Model 43368_43368', 'Web Model 43368_43368', '', ( #1 ) ) ;
#56 = CC_DESIGN_PERSON_AND_ORGANIZATION_ASSIGNMENT ( #16, #165, ( #139 ) ) ;
#57 = UNCERTAINTY_MEASURE_WITH_UNIT (LENGTH_MEASURE( 1.000000000000000082E-05 ), #79, 'distance_accuracy_value', 'NONE');
#58 = DIRECTION ( 'NONE',  ( 1.000000000000000000, 0.0000000000000000000, 0.0000000000000000000 ) ) ;
#59 = CALENDAR_DATE ( 2020, 21, 10 ) ;
#60 = EDGE_CURVE ( 'NONE', #95, #41, #68, .T. ) ;
#61 = PERSON_AND_ORGANIZATION ( #30, #17 ) ;
#62 = ORIENTED_EDGE ( 'NONE', *, *, #50, .T. ) ;
#63 = DIRECTION ( 'NONE',  ( 1.000000000000000000, 0.0000000000000000000, 0.0000000000000000000 ) ) ;
#64 = APPROVAL_STATUS ( 'not_yet_approved' ) ;
#65 = CARTESIAN_POINT ( 'NONE',  ( 0.0000000000000000000, 0.0000000000000000000, 0.0000000000000000000 ) ) ;
#66 = VERTEX_POINT ( 'NONE', #125 ) ;
#67 = DATE_AND_TIME ( #97, #135 ) ;
#68 = LINE ( 'NONE', #162, #138 ) ;
#69 = PERSON_AND_ORGANIZATION ( #30, #17 ) ;
#70 = FACE_OUTER_BOUND ( 'NONE', #31, .T. ) ;
#71 = APPROVAL ( #113, 'UNSPECIFIED' ) ;
#72 = APPROVAL ( #64, 'UNSPECIFIED' ) ;
#73 = COORDINATED_UNIVERSAL_TIME_OFFSET ( 5, 0, .BEHIND. ) ;
#74 = CALENDAR_DATE ( 2020, 21, 10 ) ;
#75 = AXIS2_PLACEMENT_3D ( 'NONE', #159, #175, #22 ) ;
#76 = VERTEX_POINT ( 'NONE', #20 ) ;
#77 = APPROVAL_ROLE ( '' ) ;
#78 = CYLINDRICAL_SURFACE ( 'NONE', #83, 10.00000000000000000 ) ;
#79 =( LENGTH_UNIT ( ) NAMED_UNIT ( * ) SI_UNIT ( .MILLI., .METRE. ) );
#80 = FACE_OUTER_BOUND ( 'NONE', #123, .T. ) ;
#81 = DIRECTION ( 'NONE',  ( 1.000000000000000000, 0.0000000000000000000, 0.0000000000000000000 ) ) ;
#82 = PERSON_AND_ORGANIZATION ( #30, #17 ) ;
#83 = AXIS2_PLACEMENT_3D ( 'NONE', #12, #129, #144 ) ;
#84 = APPROVAL_DATE_TIME ( #158, #72 ) ;
#85 = APPROVAL_DATE_TIME ( #157, #71 ) ;
#86 = CALENDAR_DATE ( 2020, 21, 10 ) ;
#87 = CC_DESIGN_SECURITY_CLASSIFICATION ( #51, ( #139 ) ) ;
#88 = APPROVAL_PERSON_ORGANIZATION ( #10, #72, #77 ) ;
#89 =( NAMED_UNIT ( * ) PLANE_ANGLE_UNIT ( ) SI_UNIT ( $, .RADIAN. ) );
#90 = CARTESIAN_POINT ( 'NONE',  ( 0.0000000000000000000, 0.0000000000000000000, 0.0000000000000000000 ) ) ;
#91 = ORIENTED_EDGE ( 'NONE', *, *, #34, .F. ) ;
#92 = LOCAL_TIME ( 14, 22, 48.00000000000000000, #126 ) ;
#93 = ADVANCED_FACE ( 'NONE', ( #107 ), #115, .T. ) ;
#94 = EDGE_CURVE ( 'NONE', #76, #66, #145, .T. ) ;
#95 = VERTEX_POINT ( 'NONE', #142 ) ;
#96 = ORIENTED_EDGE ( 'NONE', *, *, #50, .F. ) ;
#97 = CALENDAR_DATE ( 2020, 21, 10 ) ;
#98 = CC_DESIGN_PERSON_AND_ORGANIZATION_ASSIGNMENT ( #8, #45, ( #139 ) ) ;
#99 = ORIENTED_EDGE ( 'NONE', *, *, #60, .T. ) ;
#100 = APPROVAL_ROLE ( '' ) ;
#101 = LOCAL_TIME ( 14, 22, 48.00000000000000000, #47 ) ;
#102 = PRODUCT_DEFINITION ( 'UNKNOWN', '', #139, #18 ) ;
#103 = DIRECTION ( 'NONE',  ( 0.0000000000000000000, 0.0000000000000000000, 1.000000000000000000 ) ) ;
#104 = APPLICATION_CONTEXT ( 'configuration controlled 3d designs of mechanical parts and assemblies' ) ;
#105 = DATE_AND_TIME ( #24, #101 ) ;
#106 = EDGE_CURVE ( 'NONE', #76, #95, #28, .T. ) ;
#107 = FACE_OUTER_BOUND ( 'NONE', #169, .T. ) ;
#108 = LOCAL_TIME ( 14, 22, 48.00000000000000000, #23 ) ;
#109 = CLOSED_SHELL ( 'NONE', ( #54, #143, #93, #128 ) ) ;
#110 =( GEOMETRIC_REPRESENTATION_CONTEXT ( 3 ) GLOBAL_UNCERTAINTY_ASSIGNED_CONTEXT ( ( #57 ) ) GLOBAL_UNIT_ASSIGNED_CONTEXT ( ( #79, #89, #25 ) ) REPRESENTATION_CONTEXT ( 'NONE', 'WORKASPACE' ) );
#111 = CARTESIAN_POINT ( 'NONE',  ( 0.0000000000000000000, 0.0000000000000000000, 2.000000000000000000 ) ) ;
#112 = CARTESIAN_POINT ( 'NONE',  ( 0.0000000000000000000, 0.0000000000000000000, 0.0000000000000000000 ) ) ;
#113 = APPROVAL_STATUS ( 'not_yet_approved' ) ;
#114 = AXIS2_PLACEMENT_3D ( 'NONE', #112, #171, #63 ) ;
#115 = PLANE ( 'NONE',  #75 ) ;
#116 = APPROVAL_STATUS ( 'not_yet_approved' ) ;
#117 = CARTESIAN_POINT ( 'NONE',  ( 0.0000000000000000000, 0.0000000000000000000, 2.000000000000000000 ) ) ;
#118 = CARTESIAN_POINT ( 'NONE',  ( 0.0000000000000000000, 0.0000000000000000000, 0.0000000000000000000 ) ) ;
#119 = DIRECTION ( 'NONE',  ( 0.0000000000000000000, 0.0000000000000000000, 1.000000000000000000 ) ) ;
#120 = PERSON_AND_ORGANIZATION_ROLE ( 'creator' ) ;
#121 = CYLINDRICAL_SURFACE ( 'NONE', #141, 10.00000000000000000 ) ;
#122 = AXIS2_PLACEMENT_3D ( 'NONE', #118, #164, #81 ) ;
#123 = EDGE_LOOP ( 'NONE', ( #130, #2, #151, #168 ) ) ;
#124 = AXIS2_PLACEMENT_3D ( 'NONE', #90, #119, #14 ) ;
#125 = CARTESIAN_POINT ( 'NONE',  ( 10.00000000000000000, 1.224646799147353256E-15, 0.0000000000000000000 ) ) ;
#126 = COORDINATED_UNIVERSAL_TIME_OFFSET ( 5, 0, .BEHIND. ) ;
#127 = DIRECTION ( 'NONE',  ( -0.0000000000000000000, -0.0000000000000000000, -1.000000000000000000 ) ) ;
#128 = ADVANCED_FACE ( 'NONE', ( #149 ), #52, .F. ) ;
#129 = DIRECTION ( 'NONE',  ( -0.0000000000000000000, -0.0000000000000000000, -1.000000000000000000 ) ) ;
#130 = ORIENTED_EDGE ( 'NONE', *, *, #106, .F. ) ;
#131 = CC_DESIGN_PERSON_AND_ORGANIZATION_ASSIGNMENT ( #82, #15, ( #55 ) ) ;
#132 = DATE_TIME_ROLE ( 'creation_date' ) ;
#133 = APPROVAL ( #116, 'UNSPECIFIED' ) ;
#134 = CIRCLE ( 'NONE', #124, 10.00000000000000000 ) ;
#135 = LOCAL_TIME ( 14, 22, 48.00000000000000000, #42 ) ;
#136 = ORIENTED_EDGE ( 'NONE', *, *, #106, .T. ) ;
#137 = DIRECTION ( 'NONE',  ( 0.0000000000000000000, 0.0000000000000000000, 1.000000000000000000 ) ) ;
#138 = VECTOR ( 'NONE', #21, 1000.000000000000000 ) ;
#139 = PRODUCT_DEFINITION_FORMATION_WITH_SPECIFIED_SOURCE ( 'ANY', '', #55, .NOT_KNOWN. ) ;
#140 = SHAPE_DEFINITION_REPRESENTATION ( #153, #19 ) ;
#141 = AXIS2_PLACEMENT_3D ( 'NONE', #111, #156, #155 ) ;
#142 = CARTESIAN_POINT ( 'NONE',  ( -10.00000000000000000, 0.0000000000000000000, 2.000000000000000000 ) ) ;
#143 = ADVANCED_FACE ( 'NONE', ( #70 ), #78, .T. ) ;
#144 = DIRECTION ( 'NONE',  ( -1.000000000000000000, 0.0000000000000000000, 0.0000000000000000000 ) ) ;
#145 = LINE ( 'NONE', #37, #38 ) ;
#146 = APPROVAL_PERSON_ORGANIZATION ( #61, #133, #100 ) ;
#147 = APPLICATION_PROTOCOL_DEFINITION ( 'international standard', 'config_control_design', 1994, #53 ) ;
#148 = EDGE_LOOP ( 'NONE', ( #96, #7 ) ) ;
#149 = FACE_OUTER_BOUND ( 'NONE', #148, .T. ) ;
#150 = CC_DESIGN_APPROVAL ( #71, ( #139 ) ) ;
#151 = ORIENTED_EDGE ( 'NONE', *, *, #152, .T. ) ;
#152 = EDGE_CURVE ( 'NONE', #66, #41, #134, .T. ) ;
#153 = PRODUCT_DEFINITION_SHAPE ( 'NONE', 'NONE',  #102 ) ;
#154 = CARTESIAN_POINT ( 'NONE',  ( -10.00000000000000000, 0.0000000000000000000, 0.0000000000000000000 ) ) ;
#155 = DIRECTION ( 'NONE',  ( -1.000000000000000000, 0.0000000000000000000, 0.0000000000000000000 ) ) ;
#156 = DIRECTION ( 'NONE',  ( -0.0000000000000000000, -0.0000000000000000000, -1.000000000000000000 ) ) ;
#157 = DATE_AND_TIME ( #59, #92 ) ;
#158 = DATE_AND_TIME ( #86, #29 ) ;
#159 = CARTESIAN_POINT ( 'NONE',  ( 0.0000000000000000000, 0.0000000000000000000, 2.000000000000000000 ) ) ;
#160 = DATE_AND_TIME ( #74, #108 ) ;
#161 = CC_DESIGN_DATE_AND_TIME_ASSIGNMENT ( #67, #11, ( #51 ) ) ;
#162 = CARTESIAN_POINT ( 'NONE',  ( -10.00000000000000000, 0.0000000000000000000, 2.000000000000000000 ) ) ;
#163 = PERSON_AND_ORGANIZATION ( #30, #17 ) ;
#164 = DIRECTION ( 'NONE',  ( 0.0000000000000000000, 0.0000000000000000000, 1.000000000000000000 ) ) ;
#165 = PERSON_AND_ORGANIZATION_ROLE ( 'design_supplier' ) ;
#166 = CIRCLE ( 'NONE', #114, 10.00000000000000000 ) ;
#167 = CC_DESIGN_PERSON_AND_ORGANIZATION_ASSIGNMENT ( #163, #174, ( #51 ) ) ;
#168 = ORIENTED_EDGE ( 'NONE', *, *, #60, .F. ) ;
#169 = EDGE_LOOP ( 'NONE', ( #44, #136 ) ) ;
#170 = CC_DESIGN_PERSON_AND_ORGANIZATION_ASSIGNMENT ( #69, #120, ( #102 ) ) ;
#171 = DIRECTION ( 'NONE',  ( 0.0000000000000000000, 0.0000000000000000000, 1.000000000000000000 ) ) ;
#172 = APPROVAL_PERSON_ORGANIZATION ( #35, #71, #36 ) ;
#173 = PRODUCT_RELATED_PRODUCT_CATEGORY ( 'detail', '', ( #55 ) ) ;
#174 = PERSON_AND_ORGANIZATION_ROLE ( 'classification_officer' ) ;
#175 = DIRECTION ( 'NONE',  ( 0.0000000000000000000, 0.0000000000000000000, 1.000000000000000000 ) ) ;
ENDSEC;
END-ISO-10303-21;
