ISO-10303-21;
HEADER;
FILE_DESCRIPTION (( 'STEP AP203' ),
    '1' );
FILE_NAME ('Web Model 43365_20623.step',
    '2022-03-15T15:20:20',
    ( '' ),
    ( '' ),
    'SwSTEP 2.0',
    'SolidWorks 2021',
    '' );
FILE_SCHEMA (( 'CONFIG_CONTROL_DESIGN' ));
ENDSEC;

DATA;
#1 = AXIS2_PLACEMENT_3D ( 'NONE', #144, #21, #57 ) ;
#2 = EDGE_CURVE ( 'NONE', #12, #6, #127, .T. ) ;
#3 = DIRECTION ( 'NONE',  ( 0.000000000000000000, 0.000000000000000000, 1.000000000000000000 ) ) ;
#4 = ORIENTED_EDGE ( 'NONE', *, *, #158, .T. ) ;
#5 = ADVANCED_FACE ( 'NONE', ( #128 ), #40, .T. ) ;
#6 = VERTEX_POINT ( 'NONE', #55 ) ;
#7 = CARTESIAN_POINT ( 'NONE',  ( 2.499999999999999556, 3.061616997868382648E-16, 0.000000000000000000 ) ) ;
#8 = AXIS2_PLACEMENT_3D ( 'NONE', #44, #82, #164 ) ;
#9 = PERSON_AND_ORGANIZATION ( #147, #94 ) ;
#10 = VECTOR ( 'NONE', #151, 1000.000000000000000 ) ;
#11 = PERSON_AND_ORGANIZATION ( #147, #94 ) ;
#12 = VERTEX_POINT ( 'NONE', #7 ) ;
#13 = PLANE ( 'NONE',  #73 ) ;
#14 = AXIS2_PLACEMENT_3D ( 'NONE', #51, #163, #166 ) ;
#15 = DESIGN_CONTEXT ( 'detailed design', #171, 'design' ) ;
#16 = DIRECTION ( 'NONE',  ( 0.000000000000000000, 0.000000000000000000, 1.000000000000000000 ) ) ;
#17 = CC_DESIGN_PERSON_AND_ORGANIZATION_ASSIGNMENT ( #63, #115, ( #102 ) ) ;
#18 = ORIENTED_EDGE ( 'NONE', *, *, #122, .F. ) ;
#19 = DIRECTION ( 'NONE',  ( -1.000000000000000000, 0.000000000000000000, 0.000000000000000000 ) ) ;
#20 = LOCAL_TIME ( 11, 20, 20.00000000000000000, #159 ) ;
#21 = DIRECTION ( 'NONE',  ( 0.000000000000000000, 0.000000000000000000, 1.000000000000000000 ) ) ;
#22 = DATE_AND_TIME ( #101, #162 ) ;
#23 = SECURITY_CLASSIFICATION_LEVEL ( 'unclassified' ) ;
#24 = APPROVAL ( #49, 'UNSPECIFIED' ) ;
#25 = AXIS2_PLACEMENT_3D ( 'NONE', #99, #157, #85 ) ;
#26 = CARTESIAN_POINT ( 'NONE',  ( 0.000000000000000000, 0.000000000000000000, 0.5000000000000000000 ) ) ;
#27 = CARTESIAN_POINT ( 'NONE',  ( 0.000000000000000000, 0.000000000000000000, 0.5000000000000000000 ) ) ;
#28 = CARTESIAN_POINT ( 'NONE',  ( 2.499999999999999556, 3.061616997868382648E-16, 0.5000000000000000000 ) ) ;
#29 = ORIENTED_EDGE ( 'NONE', *, *, #2, .T. ) ;
#30 = ORIENTED_EDGE ( 'NONE', *, *, #158, .F. ) ;
#31 = APPROVAL ( #100, 'UNSPECIFIED' ) ;
#32 = MECHANICAL_CONTEXT ( 'NONE', #145, 'mechanical' ) ;
#33 = APPROVAL_ROLE ( '' ) ;
#34 = CALENDAR_DATE ( 2022, 15, 3 ) ;
#35 = EDGE_CURVE ( 'NONE', #70, #12, #138, .T. ) ;
#36 = PERSON_AND_ORGANIZATION ( #147, #94 ) ;
#37 = COORDINATED_UNIVERSAL_TIME_OFFSET ( 5, 0, .BEHIND. ) ;
#38 = CC_DESIGN_PERSON_AND_ORGANIZATION_ASSIGNMENT ( #140, #60, ( #61 ) ) ;
#39 = MANIFOLD_SOLID_BREP ( 'Boss-Extrude1', #48 ) ;
#40 = CYLINDRICAL_SURFACE ( 'NONE', #118, 2.499999999999999556 ) ;
#41 = CYLINDRICAL_SURFACE ( 'NONE', #56, 2.499999999999999556 ) ;
#42 = FACE_OUTER_BOUND ( 'NONE', #87, .T. ) ;
#43 =( NAMED_UNIT ( * ) SI_UNIT ( $, .STERADIAN. ) SOLID_ANGLE_UNIT ( ) );
#44 = CARTESIAN_POINT ( 'NONE',  ( 0.000000000000000000, 0.000000000000000000, 0.000000000000000000 ) ) ;
#45 = APPLICATION_PROTOCOL_DEFINITION ( 'international standard', 'config_control_design', 1994, #171 ) ;
#46 = CARTESIAN_POINT ( 'NONE',  ( 0.000000000000000000, 0.000000000000000000, 0.000000000000000000 ) ) ;
#47 =( GEOMETRIC_REPRESENTATION_CONTEXT ( 3 ) GLOBAL_UNCERTAINTY_ASSIGNED_CONTEXT ( ( #126 ) ) GLOBAL_UNIT_ASSIGNED_CONTEXT ( ( #62, #86, #43 ) ) REPRESENTATION_CONTEXT ( 'NONE', 'WORKASPACE' ) );
#48 = CLOSED_SHELL ( 'NONE', ( #5, #125, #169, #110 ) ) ;
#49 = APPROVAL_STATUS ( 'not_yet_approved' ) ;
#50 = CC_DESIGN_SECURITY_CLASSIFICATION ( #170, ( #102 ) ) ;
#51 = CARTESIAN_POINT ( 'NONE',  ( 0.000000000000000000, 0.000000000000000000, 0.000000000000000000 ) ) ;
#52 = CC_DESIGN_DATE_AND_TIME_ASSIGNMENT ( #173, #80, ( #170 ) ) ;
#53 = EDGE_LOOP ( 'NONE', ( #121, #69, #29, #30 ) ) ;
#54 = DIRECTION ( 'NONE',  ( -0.000000000000000000, -0.000000000000000000, -1.000000000000000000 ) ) ;
#55 = CARTESIAN_POINT ( 'NONE',  ( -2.499999999999999556, 0.000000000000000000, 0.000000000000000000 ) ) ;
#56 = AXIS2_PLACEMENT_3D ( 'NONE', #96, #137, #19 ) ;
#57 = DIRECTION ( 'NONE',  ( 1.000000000000000000, 0.000000000000000000, 0.000000000000000000 ) ) ;
#58 = CARTESIAN_POINT ( 'NONE',  ( -2.499999999999999556, 0.000000000000000000, 0.5000000000000000000 ) ) ;
#59 = PERSON_AND_ORGANIZATION_ROLE ( 'creator' ) ;
#60 = PERSON_AND_ORGANIZATION_ROLE ( 'design_owner' ) ;
#61 = PRODUCT ( 'Web Model 43365_20623', 'Web Model 43365_20623', '', ( #32 ) ) ;
#62 =( LENGTH_UNIT ( ) NAMED_UNIT ( * ) SI_UNIT ( .MILLI., .METRE. ) );
#63 = PERSON_AND_ORGANIZATION ( #147, #94 ) ;
#64 = CC_DESIGN_PERSON_AND_ORGANIZATION_ASSIGNMENT ( #9, #59, ( #92 ) ) ;
#65 = APPROVAL_ROLE ( '' ) ;
#66 = CC_DESIGN_DATE_AND_TIME_ASSIGNMENT ( #22, #160, ( #92 ) ) ;
#67 = ORIENTED_EDGE ( 'NONE', *, *, #2, .F. ) ;
#68 = LOCAL_TIME ( 11, 20, 20.00000000000000000, #37 ) ;
#69 = ORIENTED_EDGE ( 'NONE', *, *, #35, .T. ) ;
#70 = VERTEX_POINT ( 'NONE', #123 ) ;
#71 = DIRECTION ( 'NONE',  ( 0.000000000000000000, 0.000000000000000000, 1.000000000000000000 ) ) ;
#72 = DIRECTION ( 'NONE',  ( 1.000000000000000000, 0.000000000000000000, -0.000000000000000000 ) ) ;
#73 = AXIS2_PLACEMENT_3D ( 'NONE', #156, #16, #72 ) ;
#74 = DATE_AND_TIME ( #76, #20 ) ;
#75 = EDGE_CURVE ( 'NONE', #70, #109, #130, .T. ) ;
#76 = CALENDAR_DATE ( 2022, 15, 3 ) ;
#77 = AXIS2_PLACEMENT_3D ( 'NONE', #26, #3, #111 ) ;
#78 = PERSON_AND_ORGANIZATION ( #147, #94 ) ;
#79 = CC_DESIGN_APPROVAL ( #31, ( #92 ) ) ;
#80 = DATE_TIME_ROLE ( 'classification_date' ) ;
#81 = CIRCLE ( 'NONE', #8, 2.499999999999999556 ) ;
#82 = DIRECTION ( 'NONE',  ( 0.000000000000000000, 0.000000000000000000, 1.000000000000000000 ) ) ;
#83 = FACE_OUTER_BOUND ( 'NONE', #141, .T. ) ;
#84 = DIRECTION ( 'NONE',  ( 1.000000000000000000, 0.000000000000000000, 0.000000000000000000 ) ) ;
#85 = DIRECTION ( 'NONE',  ( 1.000000000000000000, 0.000000000000000000, 0.000000000000000000 ) ) ;
#86 =( NAMED_UNIT ( * ) PLANE_ANGLE_UNIT ( ) SI_UNIT ( $, .RADIAN. ) );
#87 = EDGE_LOOP ( 'NONE', ( #98, #18, #4, #119 ) ) ;
#88 = PERSON_AND_ORGANIZATION ( #147, #94 ) ;
#89 = DATE_AND_TIME ( #133, #136 ) ;
#90 = CALENDAR_DATE ( 2022, 15, 3 ) ;
#91 = LOCAL_TIME ( 11, 20, 20.00000000000000000, #93 ) ;
#92 = PRODUCT_DEFINITION ( 'UNKNOWN', '', #102, #15 ) ;
#93 = COORDINATED_UNIVERSAL_TIME_OFFSET ( 5, 0, .BEHIND. ) ;
#94 = ORGANIZATION ( 'UNSPECIFIED', 'UNSPECIFIED', '' ) ;
#95 = CARTESIAN_POINT ( 'NONE',  ( -2.499999999999999556, 0.000000000000000000, 0.5000000000000000000 ) ) ;
#96 = CARTESIAN_POINT ( 'NONE',  ( 0.000000000000000000, 0.000000000000000000, 0.5000000000000000000 ) ) ;
#97 = APPROVAL_PERSON_ORGANIZATION ( #143, #31, #33 ) ;
#98 = ORIENTED_EDGE ( 'NONE', *, *, #35, .F. ) ;
#99 = CARTESIAN_POINT ( 'NONE',  ( 0.000000000000000000, 0.000000000000000000, 0.5000000000000000000 ) ) ;
#100 = APPROVAL_STATUS ( 'not_yet_approved' ) ;
#101 = CALENDAR_DATE ( 2022, 15, 3 ) ;
#102 = PRODUCT_DEFINITION_FORMATION_WITH_SPECIFIED_SOURCE ( 'ANY', '', #61, .NOT_KNOWN. ) ;
#103 = PERSON_AND_ORGANIZATION_ROLE ( 'creator' ) ;
#104 = CIRCLE ( 'NONE', #25, 2.499999999999999556 ) ;
#105 = PERSON_AND_ORGANIZATION_ROLE ( 'classification_officer' ) ;
#106 = CC_DESIGN_APPROVAL ( #150, ( #170 ) ) ;
#107 = APPROVAL_DATE_TIME ( #116, #24 ) ;
#108 = EDGE_LOOP ( 'NONE', ( #135, #67 ) ) ;
#109 = VERTEX_POINT ( 'NONE', #58 ) ;
#110 = ADVANCED_FACE ( 'NONE', ( #167 ), #112, .F. ) ;
#111 = DIRECTION ( 'NONE',  ( 1.000000000000000000, 0.000000000000000000, 0.000000000000000000 ) ) ;
#112 = PLANE ( 'NONE',  #14 ) ;
#113 = APPROVAL_PERSON_ORGANIZATION ( #11, #150, #65 ) ;
#114 = ORIENTED_EDGE ( 'NONE', *, *, #75, .T. ) ;
#115 = PERSON_AND_ORGANIZATION_ROLE ( 'design_supplier' ) ;
#116 = DATE_AND_TIME ( #34, #68 ) ;
#117 = EDGE_CURVE ( 'NONE', #6, #12, #81, .T. ) ;
#118 = AXIS2_PLACEMENT_3D ( 'NONE', #27, #54, #124 ) ;
#119 = ORIENTED_EDGE ( 'NONE', *, *, #117, .T. ) ;
#120 = VECTOR ( 'NONE', #152, 1000.000000000000000 ) ;
#121 = ORIENTED_EDGE ( 'NONE', *, *, #75, .F. ) ;
#122 = EDGE_CURVE ( 'NONE', #109, #70, #104, .T. ) ;
#123 = CARTESIAN_POINT ( 'NONE',  ( 2.499999999999999556, 3.061616997868382648E-16, 0.5000000000000000000 ) ) ;
#124 = DIRECTION ( 'NONE',  ( -1.000000000000000000, 0.000000000000000000, 0.000000000000000000 ) ) ;
#125 = ADVANCED_FACE ( 'NONE', ( #42 ), #41, .T. ) ;
#126 = UNCERTAINTY_MEASURE_WITH_UNIT (LENGTH_MEASURE( 1.000000000000000082E-05 ), #62, 'distance_accuracy_value', 'NONE');
#127 = CIRCLE ( 'NONE', #134, 2.499999999999999556 ) ;
#128 = FACE_OUTER_BOUND ( 'NONE', #53, .T. ) ;
#129 = APPROVAL_DATE_TIME ( #74, #31 ) ;
#130 = CIRCLE ( 'NONE', #77, 2.499999999999999556 ) ;
#131 = APPLICATION_PROTOCOL_DEFINITION ( 'international standard', 'config_control_design', 1994, #145 ) ;
#132 = CC_DESIGN_PERSON_AND_ORGANIZATION_ASSIGNMENT ( #78, #103, ( #102 ) ) ;
#133 = CALENDAR_DATE ( 2022, 15, 3 ) ;
#134 = AXIS2_PLACEMENT_3D ( 'NONE', #46, #71, #84 ) ;
#135 = ORIENTED_EDGE ( 'NONE', *, *, #117, .F. ) ;
#136 = LOCAL_TIME ( 11, 20, 20.00000000000000000, #161 ) ;
#137 = DIRECTION ( 'NONE',  ( -0.000000000000000000, -0.000000000000000000, -1.000000000000000000 ) ) ;
#138 = LINE ( 'NONE', #28, #10 ) ;
#139 = LINE ( 'NONE', #95, #120 ) ;
#140 = PERSON_AND_ORGANIZATION ( #147, #94 ) ;
#141 = EDGE_LOOP ( 'NONE', ( #153, #114 ) ) ;
#142 = PRODUCT_DEFINITION_SHAPE ( 'NONE', 'NONE',  #92 ) ;
#143 = PERSON_AND_ORGANIZATION ( #147, #94 ) ;
#144 = CARTESIAN_POINT ( 'NONE',  ( 0.000000000000000000, 0.000000000000000000, 0.000000000000000000 ) ) ;
#145 = APPLICATION_CONTEXT ( 'configuration controlled 3d designs of mechanical parts and assemblies' ) ;
#146 = APPROVAL_ROLE ( '' ) ;
#147 = PERSON ( 'UNSPECIFIED', 'UNSPECIFIED', 'UNSPECIFIED', ('UNSPECIFIED'), ('UNSPECIFIED'), ('UNSPECIFIED') ) ;
#148 = CC_DESIGN_APPROVAL ( #24, ( #102 ) ) ;
#149 = APPROVAL_STATUS ( 'not_yet_approved' ) ;
#150 = APPROVAL ( #149, 'UNSPECIFIED' ) ;
#151 = DIRECTION ( 'NONE',  ( -0.000000000000000000, -0.000000000000000000, -1.000000000000000000 ) ) ;
#152 = DIRECTION ( 'NONE',  ( -0.000000000000000000, -0.000000000000000000, -1.000000000000000000 ) ) ;
#153 = ORIENTED_EDGE ( 'NONE', *, *, #122, .T. ) ;
#154 = APPROVAL_PERSON_ORGANIZATION ( #36, #24, #146 ) ;
#155 = CC_DESIGN_PERSON_AND_ORGANIZATION_ASSIGNMENT ( #88, #105, ( #170 ) ) ;
#156 = CARTESIAN_POINT ( 'NONE',  ( 0.000000000000000000, 0.000000000000000000, 0.5000000000000000000 ) ) ;
#157 = DIRECTION ( 'NONE',  ( 0.000000000000000000, 0.000000000000000000, 1.000000000000000000 ) ) ;
#158 = EDGE_CURVE ( 'NONE', #109, #6, #139, .T. ) ;
#159 = COORDINATED_UNIVERSAL_TIME_OFFSET ( 5, 0, .BEHIND. ) ;
#160 = DATE_TIME_ROLE ( 'creation_date' ) ;
#161 = COORDINATED_UNIVERSAL_TIME_OFFSET ( 5, 0, .BEHIND. ) ;
#162 = LOCAL_TIME ( 11, 20, 20.00000000000000000, #168 ) ;
#163 = DIRECTION ( 'NONE',  ( 0.000000000000000000, 0.000000000000000000, 1.000000000000000000 ) ) ;
#164 = DIRECTION ( 'NONE',  ( 1.000000000000000000, 0.000000000000000000, 0.000000000000000000 ) ) ;
#165 = ADVANCED_BREP_SHAPE_REPRESENTATION ( 'Web Model 43365_20623', ( #39, #1 ), #47 ) ;
#166 = DIRECTION ( 'NONE',  ( 1.000000000000000000, 0.000000000000000000, -0.000000000000000000 ) ) ;
#167 = FACE_OUTER_BOUND ( 'NONE', #108, .T. ) ;
#168 = COORDINATED_UNIVERSAL_TIME_OFFSET ( 5, 0, .BEHIND. ) ;
#169 = ADVANCED_FACE ( 'NONE', ( #83 ), #13, .T. ) ;
#170 = SECURITY_CLASSIFICATION ( '', '', #23 ) ;
#171 = APPLICATION_CONTEXT ( 'configuration controlled 3d designs of mechanical parts and assemblies' ) ;
#172 = PRODUCT_RELATED_PRODUCT_CATEGORY ( 'detail', '', ( #61 ) ) ;
#173 = DATE_AND_TIME ( #90, #91 ) ;
#174 = APPROVAL_DATE_TIME ( #89, #150 ) ;
#175 = SHAPE_DEFINITION_REPRESENTATION ( #142, #165 ) ;
ENDSEC;
END-ISO-10303-21;
