ISO-10303-21;
HEADER;
FILE_DESCRIPTION (( 'STEP AP203' ),
    '1' );
FILE_NAME ('Web Model Ø5-75mm Indoor Hydrophobic Windows_36069.step',
    '2017-09-07T19:06:36',
    ( '' ),
    ( '' ),
    'SwSTEP 2.0',
    'SolidWorks 2016',
    '' );
FILE_SCHEMA (( 'CONFIG_CONTROL_DESIGN' ));
ENDSEC;

DATA;
#1 = LINE ( 'NONE', #67, #173 ) ;
#2 = VERTEX_POINT ( 'NONE', #55 ) ;
#3 = DATE_AND_TIME ( #157, #84 ) ;
#4 = VERTEX_POINT ( 'NONE', #154 ) ;
#5 = DIRECTION ( 'NONE',  ( 0.0000000000000000000, 0.0000000000000000000, 1.000000000000000000 ) ) ;
#6 = PERSON_AND_ORGANIZATION ( #47, #97 ) ;
#7 = CARTESIAN_POINT ( 'NONE',  ( 0.0000000000000000000, 0.0000000000000000000, 0.0000000000000000000 ) ) ;
#8 = PERSON_AND_ORGANIZATION_ROLE ( 'creator' ) ;
#9 = PERSON_AND_ORGANIZATION_ROLE ( 'design_supplier' ) ;
#10 = COORDINATED_UNIVERSAL_TIME_OFFSET ( 5, 0, .BEHIND. ) ;
#11 = CARTESIAN_POINT ( 'NONE',  ( 0.0000000000000000000, 0.0000000000000000000, 0.5500000000000000400 ) ) ;
#12 = EDGE_CURVE ( 'NONE', #2, #163, #102, .T. ) ;
#13 = PRODUCT_RELATED_PRODUCT_CATEGORY ( 'detail', '', ( #118 ) ) ;
#14 = PRODUCT_DEFINITION_FORMATION_WITH_SPECIFIED_SOURCE ( 'ANY', '', #118, .NOT_KNOWN. ) ;
#15 = PERSON_AND_ORGANIZATION ( #47, #97 ) ;
#16 = APPROVAL ( #95, 'UNSPECIFIED' ) ;
#17 = CALENDAR_DATE ( 2017, 7, 9 ) ;
#18 = ADVANCED_FACE ( 'NONE', ( #146 ), #110, .T. ) ;
#19 = PRODUCT_DEFINITION_SHAPE ( 'NONE', 'NONE',  #134 ) ;
#20 = APPROVAL_PERSON_ORGANIZATION ( #15, #151, #103 ) ;
#21 = UNCERTAINTY_MEASURE_WITH_UNIT (LENGTH_MEASURE( 1.000000000000000100E-005 ), #58, 'distance_accuracy_value', 'NONE');
#22 = PLANE ( 'NONE',  #109 ) ;
#23 = CC_DESIGN_PERSON_AND_ORGANIZATION_ASSIGNMENT ( #6, #8, ( #14 ) ) ;
#24 = PERSON_AND_ORGANIZATION ( #47, #97 ) ;
#25 = CIRCLE ( 'NONE', #141, 5.000000000000000000 ) ;
#26 = SECURITY_CLASSIFICATION_LEVEL ( 'unclassified' ) ;
#27 = SECURITY_CLASSIFICATION ( '', '', #26 ) ;
#28 = VERTEX_POINT ( 'NONE', #80 ) ;
#29 = PERSON_AND_ORGANIZATION ( #47, #97 ) ;
#30 = ADVANCED_BREP_SHAPE_REPRESENTATION ( 'Web Model +5-75mm Indoor Hydrophobic Windows_36069', ( #50, #145 ), #128 ) ;
#31 = CC_DESIGN_PERSON_AND_ORGANIZATION_ASSIGNMENT ( #29, #159, ( #118 ) ) ;
#32 = ADVANCED_FACE ( 'NONE', ( #81 ), #66, .F. ) ;
#33 = ORIENTED_EDGE ( 'NONE', *, *, #12, .F. ) ;
#34 = AXIS2_PLACEMENT_3D ( 'NONE', #60, #83, #59 ) ;
#35 = CARTESIAN_POINT ( 'NONE',  ( 0.0000000000000000000, 0.0000000000000000000, 0.5500000000000000400 ) ) ;
#36 = CARTESIAN_POINT ( 'NONE',  ( -5.000000000000000000, 0.0000000000000000000, 0.5500000000000000400 ) ) ;
#37 = CIRCLE ( 'NONE', #114, 5.000000000000000000 ) ;
#38 = DIRECTION ( 'NONE',  ( 0.0000000000000000000, 0.0000000000000000000, 1.000000000000000000 ) ) ;
#39 = CC_DESIGN_DATE_AND_TIME_ASSIGNMENT ( #116, #69, ( #134 ) ) ;
#40 = PERSON_AND_ORGANIZATION ( #47, #97 ) ;
#41 = CIRCLE ( 'NONE', #135, 5.000000000000000000 ) ;
#42 = DIRECTION ( 'NONE',  ( 1.000000000000000000, 0.0000000000000000000, 0.0000000000000000000 ) ) ;
#43 =( NAMED_UNIT ( * ) SI_UNIT ( $, .STERADIAN. ) SOLID_ANGLE_UNIT ( ) );
#44 = DESIGN_CONTEXT ( 'detailed design', #104, 'design' ) ;
#45 = DIRECTION ( 'NONE',  ( 1.000000000000000000, 0.0000000000000000000, -0.0000000000000000000 ) ) ;
#46 = ORIENTED_EDGE ( 'NONE', *, *, #98, .F. ) ;
#47 = PERSON ( 'UNSPECIFIED', 'UNSPECIFIED', 'UNSPECIFIED', ('UNSPECIFIED'), ('UNSPECIFIED'), ('UNSPECIFIED') ) ;
#48 = COORDINATED_UNIVERSAL_TIME_OFFSET ( 5, 0, .BEHIND. ) ;
#49 = CC_DESIGN_PERSON_AND_ORGANIZATION_ASSIGNMENT ( #24, #68, ( #27 ) ) ;
#50 = MANIFOLD_SOLID_BREP ( 'Boss-Extrude1', #70 ) ;
#51 = APPROVAL_PERSON_ORGANIZATION ( #140, #16, #169 ) ;
#52 = DIRECTION ( 'NONE',  ( 1.000000000000000000, 0.0000000000000000000, 0.0000000000000000000 ) ) ;
#53 = APPROVAL ( #133, 'UNSPECIFIED' ) ;
#54 = DIRECTION ( 'NONE',  ( -1.000000000000000000, 0.0000000000000000000, 0.0000000000000000000 ) ) ;
#55 = CARTESIAN_POINT ( 'NONE',  ( -5.000000000000000000, 0.0000000000000000000, 0.5500000000000000400 ) ) ;
#56 = AXIS2_PLACEMENT_3D ( 'NONE', #90, #100, #54 ) ;
#57 = DIRECTION ( 'NONE',  ( -0.0000000000000000000, -0.0000000000000000000, -1.000000000000000000 ) ) ;
#58 =( LENGTH_UNIT ( ) NAMED_UNIT ( * ) SI_UNIT ( .MILLI., .METRE. ) );
#59 = DIRECTION ( 'NONE',  ( 1.000000000000000000, 0.0000000000000000000, 0.0000000000000000000 ) ) ;
#60 = CARTESIAN_POINT ( 'NONE',  ( 0.0000000000000000000, 0.0000000000000000000, 0.5500000000000000400 ) ) ;
#61 = APPLICATION_CONTEXT ( 'configuration controlled 3d designs of mechanical parts and assemblies' ) ;
#62 = PERSON_AND_ORGANIZATION ( #47, #97 ) ;
#63 = FACE_OUTER_BOUND ( 'NONE', #76, .T. ) ;
#64 = EDGE_CURVE ( 'NONE', #28, #2, #41, .T. ) ;
#65 = EDGE_LOOP ( 'NONE', ( #108, #106, #136, #33 ) ) ;
#66 = PLANE ( 'NONE',  #164 ) ;
#67 = CARTESIAN_POINT ( 'NONE',  ( 5.000000000000000000, 6.123233995736766300E-016, 0.5500000000000000400 ) ) ;
#68 = PERSON_AND_ORGANIZATION_ROLE ( 'classification_officer' ) ;
#69 = DATE_TIME_ROLE ( 'creation_date' ) ;
#70 = CLOSED_SHELL ( 'NONE', ( #18, #139, #123, #32 ) ) ;
#71 = DIRECTION ( 'NONE',  ( 0.0000000000000000000, 0.0000000000000000000, 1.000000000000000000 ) ) ;
#72 = CALENDAR_DATE ( 2017, 7, 9 ) ;
#73 = EDGE_LOOP ( 'NONE', ( #96, #153, #88, #127 ) ) ;
#74 = ORIENTED_EDGE ( 'NONE', *, *, #93, .F. ) ;
#75 = PERSON_AND_ORGANIZATION ( #47, #97 ) ;
#76 = EDGE_LOOP ( 'NONE', ( #78, #85 ) ) ;
#77 = CARTESIAN_POINT ( 'NONE',  ( 0.0000000000000000000, 0.0000000000000000000, -0.5500000000000000400 ) ) ;
#78 = ORIENTED_EDGE ( 'NONE', *, *, #138, .T. ) ;
#79 = DIRECTION ( 'NONE',  ( -0.0000000000000000000, -0.0000000000000000000, -1.000000000000000000 ) ) ;
#80 = CARTESIAN_POINT ( 'NONE',  ( 5.000000000000000000, 6.123233995736766300E-016, 0.5500000000000000400 ) ) ;
#81 = FACE_OUTER_BOUND ( 'NONE', #149, .T. ) ;
#82 = PERSON_AND_ORGANIZATION_ROLE ( 'creator' ) ;
#83 = DIRECTION ( 'NONE',  ( 0.0000000000000000000, 0.0000000000000000000, 1.000000000000000000 ) ) ;
#84 = LOCAL_TIME ( 15, 6, 36.00000000000000000, #131 ) ;
#85 = ORIENTED_EDGE ( 'NONE', *, *, #64, .T. ) ;
#86 = COORDINATED_UNIVERSAL_TIME_OFFSET ( 5, 0, .BEHIND. ) ;
#87 = APPROVAL_PERSON_ORGANIZATION ( #75, #53, #105 ) ;
#88 = ORIENTED_EDGE ( 'NONE', *, *, #12, .T. ) ;
#89 = CC_DESIGN_APPROVAL ( #53, ( #27 ) ) ;
#90 = CARTESIAN_POINT ( 'NONE',  ( 0.0000000000000000000, 0.0000000000000000000, 0.5500000000000000400 ) ) ;
#91 = CARTESIAN_POINT ( 'NONE',  ( 0.0000000000000000000, 0.0000000000000000000, 0.5500000000000000400 ) ) ;
#92 = LOCAL_TIME ( 15, 6, 36.00000000000000000, #48 ) ;
#93 = EDGE_CURVE ( 'NONE', #163, #4, #25, .T. ) ;
#94 =( NAMED_UNIT ( * ) PLANE_ANGLE_UNIT ( ) SI_UNIT ( $, .RADIAN. ) );
#95 = APPROVAL_STATUS ( 'not_yet_approved' ) ;
#96 = ORIENTED_EDGE ( 'NONE', *, *, #111, .F. ) ;
#97 = ORGANIZATION ( 'UNSPECIFIED', 'UNSPECIFIED', '' ) ;
#98 = EDGE_CURVE ( 'NONE', #4, #163, #37, .T. ) ;
#99 = DIRECTION ( 'NONE',  ( 1.000000000000000000, 0.0000000000000000000, 0.0000000000000000000 ) ) ;
#100 = DIRECTION ( 'NONE',  ( -0.0000000000000000000, -0.0000000000000000000, -1.000000000000000000 ) ) ;
#101 = CALENDAR_DATE ( 2017, 7, 9 ) ;
#102 = LINE ( 'NONE', #36, #161 ) ;
#103 = APPROVAL_ROLE ( '' ) ;
#104 = APPLICATION_CONTEXT ( 'configuration controlled 3d designs of mechanical parts and assemblies' ) ;
#105 = APPROVAL_ROLE ( '' ) ;
#106 = ORIENTED_EDGE ( 'NONE', *, *, #111, .T. ) ;
#107 = APPROVAL_DATE_TIME ( #119, #16 ) ;
#108 = ORIENTED_EDGE ( 'NONE', *, *, #64, .F. ) ;
#109 = AXIS2_PLACEMENT_3D ( 'NONE', #91, #71, #45 ) ;
#110 = CYLINDRICAL_SURFACE ( 'NONE', #56, 5.000000000000000000 ) ;
#111 = EDGE_CURVE ( 'NONE', #28, #4, #1, .T. ) ;
#112 = DIRECTION ( 'NONE',  ( 1.000000000000000000, 0.0000000000000000000, 0.0000000000000000000 ) ) ;
#113 = SHAPE_DEFINITION_REPRESENTATION ( #19, #30 ) ;
#114 = AXIS2_PLACEMENT_3D ( 'NONE', #126, #38, #112 ) ;
#115 = CC_DESIGN_SECURITY_CLASSIFICATION ( #27, ( #14 ) ) ;
#116 = DATE_AND_TIME ( #101, #125 ) ;
#117 = DATE_TIME_ROLE ( 'classification_date' ) ;
#118 = PRODUCT ( 'Web Model Ø5-75mm Indoor Hydrophobic Windows_36069', 'Web Model Ø5-75mm Indoor Hydrophobic Windows_36069', '', ( #130 ) ) ;
#119 = DATE_AND_TIME ( #17, #92 ) ;
#120 = APPROVAL_STATUS ( 'not_yet_approved' ) ;
#121 = CC_DESIGN_APPROVAL ( #151, ( #134 ) ) ;
#122 = DATE_AND_TIME ( #72, #148 ) ;
#123 = ADVANCED_FACE ( 'NONE', ( #63 ), #22, .T. ) ;
#124 = AXIS2_PLACEMENT_3D ( 'NONE', #11, #172, #129 ) ;
#125 = LOCAL_TIME ( 15, 6, 36.00000000000000000, #86 ) ;
#126 = CARTESIAN_POINT ( 'NONE',  ( 0.0000000000000000000, 0.0000000000000000000, -0.5500000000000000400 ) ) ;
#127 = ORIENTED_EDGE ( 'NONE', *, *, #93, .T. ) ;
#128 =( GEOMETRIC_REPRESENTATION_CONTEXT ( 3 ) GLOBAL_UNCERTAINTY_ASSIGNED_CONTEXT ( ( #21 ) ) GLOBAL_UNIT_ASSIGNED_CONTEXT ( ( #58, #94, #43 ) ) REPRESENTATION_CONTEXT ( 'NONE', 'WORKASPACE' ) );
#129 = DIRECTION ( 'NONE',  ( -1.000000000000000000, 0.0000000000000000000, 0.0000000000000000000 ) ) ;
#130 = MECHANICAL_CONTEXT ( 'NONE', #61, 'mechanical' ) ;
#131 = COORDINATED_UNIVERSAL_TIME_OFFSET ( 5, 0, .BEHIND. ) ;
#132 = APPLICATION_PROTOCOL_DEFINITION ( 'international standard', 'config_control_design', 1994, #61 ) ;
#133 = APPROVAL_STATUS ( 'not_yet_approved' ) ;
#134 = PRODUCT_DEFINITION ( 'UNKNOWN', '', #14, #44 ) ;
#135 = AXIS2_PLACEMENT_3D ( 'NONE', #35, #5, #52 ) ;
#136 = ORIENTED_EDGE ( 'NONE', *, *, #98, .T. ) ;
#137 = CIRCLE ( 'NONE', #34, 5.000000000000000000 ) ;
#138 = EDGE_CURVE ( 'NONE', #2, #28, #137, .T. ) ;
#139 = ADVANCED_FACE ( 'NONE', ( #158 ), #167, .T. ) ;
#140 = PERSON_AND_ORGANIZATION ( #47, #97 ) ;
#141 = AXIS2_PLACEMENT_3D ( 'NONE', #77, #166, #99 ) ;
#142 = DIRECTION ( 'NONE',  ( 0.0000000000000000000, 0.0000000000000000000, 1.000000000000000000 ) ) ;
#143 = CALENDAR_DATE ( 2017, 7, 9 ) ;
#144 = DIRECTION ( 'NONE',  ( 0.0000000000000000000, 0.0000000000000000000, 1.000000000000000000 ) ) ;
#145 = AXIS2_PLACEMENT_3D ( 'NONE', #7, #144, #42 ) ;
#146 = FACE_OUTER_BOUND ( 'NONE', #65, .T. ) ;
#147 = DATE_AND_TIME ( #143, #152 ) ;
#148 = LOCAL_TIME ( 15, 6, 36.00000000000000000, #10 ) ;
#149 = EDGE_LOOP ( 'NONE', ( #74, #46 ) ) ;
#150 = COORDINATED_UNIVERSAL_TIME_OFFSET ( 5, 0, .BEHIND. ) ;
#151 = APPROVAL ( #120, 'UNSPECIFIED' ) ;
#152 = LOCAL_TIME ( 15, 6, 36.00000000000000000, #150 ) ;
#153 = ORIENTED_EDGE ( 'NONE', *, *, #138, .F. ) ;
#154 = CARTESIAN_POINT ( 'NONE',  ( 5.000000000000000000, 6.123233995736766300E-016, -0.5500000000000000400 ) ) ;
#155 = CC_DESIGN_DATE_AND_TIME_ASSIGNMENT ( #3, #117, ( #27 ) ) ;
#156 = DIRECTION ( 'NONE',  ( 1.000000000000000000, 0.0000000000000000000, -0.0000000000000000000 ) ) ;
#157 = CALENDAR_DATE ( 2017, 7, 9 ) ;
#158 = FACE_OUTER_BOUND ( 'NONE', #73, .T. ) ;
#159 = PERSON_AND_ORGANIZATION_ROLE ( 'design_owner' ) ;
#160 = CC_DESIGN_APPROVAL ( #16, ( #14 ) ) ;
#161 = VECTOR ( 'NONE', #57, 1000.000000000000000 ) ;
#162 = CC_DESIGN_PERSON_AND_ORGANIZATION_ASSIGNMENT ( #40, #9, ( #14 ) ) ;
#163 = VERTEX_POINT ( 'NONE', #170 ) ;
#164 = AXIS2_PLACEMENT_3D ( 'NONE', #168, #142, #156 ) ;
#165 = APPROVAL_DATE_TIME ( #147, #151 ) ;
#166 = DIRECTION ( 'NONE',  ( 0.0000000000000000000, 0.0000000000000000000, 1.000000000000000000 ) ) ;
#167 = CYLINDRICAL_SURFACE ( 'NONE', #124, 5.000000000000000000 ) ;
#168 = CARTESIAN_POINT ( 'NONE',  ( 0.0000000000000000000, 0.0000000000000000000, -0.5500000000000000400 ) ) ;
#169 = APPROVAL_ROLE ( '' ) ;
#170 = CARTESIAN_POINT ( 'NONE',  ( -5.000000000000000000, 0.0000000000000000000, -0.5500000000000000400 ) ) ;
#171 = APPLICATION_PROTOCOL_DEFINITION ( 'international standard', 'config_control_design', 1994, #104 ) ;
#172 = DIRECTION ( 'NONE',  ( -0.0000000000000000000, -0.0000000000000000000, -1.000000000000000000 ) ) ;
#173 = VECTOR ( 'NONE', #79, 1000.000000000000000 ) ;
#174 = CC_DESIGN_PERSON_AND_ORGANIZATION_ASSIGNMENT ( #62, #82, ( #134 ) ) ;
#175 = APPROVAL_DATE_TIME ( #122, #53 ) ;
ENDSEC;
END-ISO-10303-21;
