ISO-10303-21;
HEADER;
FILE_DESCRIPTION (( 'STEP AP203' ),
    '1' );
FILE_NAME ('Web Model 89559.STEP',
    '2017-02-01T16:29:25',
    ( '' ),
    ( '' ),
    'SwSTEP 2.0',
    'SolidWorks 2016',
    '' );
FILE_SCHEMA (( 'CONFIG_CONTROL_DESIGN' ));
ENDSEC;

DATA;
#1 = VECTOR ( 'NONE', #77, 1000.000000000000000 ) ;
#2 = ADVANCED_FACE ( 'NONE', ( #22 ), #93, .T. ) ;
#3 = COORDINATED_UNIVERSAL_TIME_OFFSET ( 5, 0, .BEHIND. ) ;
#4 = CALENDAR_DATE ( 2017, 1, 2 ) ;
#5 = CARTESIAN_POINT ( 'NONE',  ( 0.0000000000000000000, 7.654042494670957600E-016, -6.250000000000000000 ) ) ;
#6 = PLANE ( 'NONE',  #114 ) ;
#7 = CARTESIAN_POINT ( 'NONE',  ( 1.000000000000000000, 0.0000000000000000000, 0.0000000000000000000 ) ) ;
#8 = APPROVAL_PERSON_ORGANIZATION ( #110, #131, #14 ) ;
#9 = CARTESIAN_POINT ( 'NONE',  ( 1.000000000000000000, 0.0000000000000000000, 0.0000000000000000000 ) ) ;
#10 = CC_DESIGN_DATE_AND_TIME_ASSIGNMENT ( #145, #25, ( #88 ) ) ;
#11 = APPROVAL_PERSON_ORGANIZATION ( #84, #144, #94 ) ;
#12 =( GEOMETRIC_REPRESENTATION_CONTEXT ( 3 ) GLOBAL_UNCERTAINTY_ASSIGNED_CONTEXT ( ( #18 ) ) GLOBAL_UNIT_ASSIGNED_CONTEXT ( ( #35, #63, #134 ) ) REPRESENTATION_CONTEXT ( 'NONE', 'WORKASPACE' ) );
#13 = VERTEX_POINT ( 'NONE', #165 ) ;
#14 = APPROVAL_ROLE ( '' ) ;
#15 = APPLICATION_PROTOCOL_DEFINITION ( 'international standard', 'config_control_design', 1994, #175 ) ;
#16 = CALENDAR_DATE ( 2017, 1, 2 ) ;
#17 = ORGANIZATION ( 'UNSPECIFIED', 'UNSPECIFIED', '' ) ;
#18 = UNCERTAINTY_MEASURE_WITH_UNIT (LENGTH_MEASURE( 1.000000000000000100E-005 ), #35, 'distance_accuracy_value', 'NONE');
#19 = AXIS2_PLACEMENT_3D ( 'NONE', #24, #115, #47 ) ;
#20 = ADVANCED_FACE ( 'NONE', ( #163 ), #136, .T. ) ;
#21 = PERSON_AND_ORGANIZATION ( #155, #17 ) ;
#22 = FACE_OUTER_BOUND ( 'NONE', #67, .T. ) ;
#23 = CC_DESIGN_APPROVAL ( #164, ( #88 ) ) ;
#24 = CARTESIAN_POINT ( 'NONE',  ( 0.0000000000000000000, 0.0000000000000000000, 0.0000000000000000000 ) ) ;
#25 = DATE_TIME_ROLE ( 'classification_date' ) ;
#26 = CC_DESIGN_PERSON_AND_ORGANIZATION_ASSIGNMENT ( #79, #83, ( #172 ) ) ;
#27 = PERSON_AND_ORGANIZATION ( #155, #17 ) ;
#28 = VECTOR ( 'NONE', #60, 1000.000000000000000 ) ;
#29 = SECURITY_CLASSIFICATION_LEVEL ( 'unclassified' ) ;
#30 = EDGE_CURVE ( 'NONE', #86, #13, #125, .T. ) ;
#31 = EDGE_LOOP ( 'NONE', ( #148, #161, #46, #42 ) ) ;
#32 = DATE_AND_TIME ( #169, #41 ) ;
#33 = AXIS2_PLACEMENT_3D ( 'NONE', #140, #142, #113 ) ;
#34 = CARTESIAN_POINT ( 'NONE',  ( 0.0000000000000000000, 0.0000000000000000000, 0.0000000000000000000 ) ) ;
#35 =( LENGTH_UNIT ( ) NAMED_UNIT ( * ) SI_UNIT ( .MILLI., .METRE. ) );
#36 = LOCAL_TIME ( 11, 29, 25.00000000000000000, #141 ) ;
#37 = LINE ( 'NONE', #124, #28 ) ;
#38 = DIRECTION ( 'NONE',  ( 0.0000000000000000000, 0.0000000000000000000, 1.000000000000000000 ) ) ;
#39 = CC_DESIGN_SECURITY_CLASSIFICATION ( #88, ( #151 ) ) ;
#40 = PERSON_AND_ORGANIZATION_ROLE ( 'design_supplier' ) ;
#41 = LOCAL_TIME ( 11, 29, 25.00000000000000000, #3 ) ;
#42 = ORIENTED_EDGE ( 'NONE', *, *, #51, .F. ) ;
#43 = PERSON_AND_ORGANIZATION ( #155, #17 ) ;
#44 = CARTESIAN_POINT ( 'NONE',  ( 1.000000000000000000, 0.0000000000000000000, 6.250000000000000000 ) ) ;
#45 = PRODUCT_RELATED_PRODUCT_CATEGORY ( 'detail', '', ( #97 ) ) ;
#46 = ORIENTED_EDGE ( 'NONE', *, *, #30, .T. ) ;
#47 = DIRECTION ( 'NONE',  ( 0.0000000000000000000, 0.0000000000000000000, -1.000000000000000000 ) ) ;
#48 = SHAPE_DEFINITION_REPRESENTATION ( #54, #75 ) ;
#49 = CC_DESIGN_APPROVAL ( #131, ( #151 ) ) ;
#50 = APPROVAL_STATUS ( 'not_yet_approved' ) ;
#51 = EDGE_CURVE ( 'NONE', #58, #13, #37, .T. ) ;
#52 = COORDINATED_UNIVERSAL_TIME_OFFSET ( 5, 0, .BEHIND. ) ;
#53 = ORIENTED_EDGE ( 'NONE', *, *, #108, .T. ) ;
#54 = PRODUCT_DEFINITION_SHAPE ( 'NONE', 'NONE',  #172 ) ;
#55 = ORIENTED_EDGE ( 'NONE', *, *, #96, .F. ) ;
#56 = AXIS2_PLACEMENT_3D ( 'NONE', #89, #143, #72 ) ;
#57 = COORDINATED_UNIVERSAL_TIME_OFFSET ( 5, 0, .BEHIND. ) ;
#58 = VERTEX_POINT ( 'NONE', #44 ) ;
#59 = CARTESIAN_POINT ( 'NONE',  ( 1.000000000000000000, 7.654042494670957600E-016, -6.250000000000000000 ) ) ;
#60 = DIRECTION ( 'NONE',  ( -1.000000000000000000, -0.0000000000000000000, -0.0000000000000000000 ) ) ;
#61 = AXIS2_PLACEMENT_3D ( 'NONE', #9, #99, #98 ) ;
#62 = LINE ( 'NONE', #152, #1 ) ;
#63 =( NAMED_UNIT ( * ) PLANE_ANGLE_UNIT ( ) SI_UNIT ( $, .RADIAN. ) );
#64 = AXIS2_PLACEMENT_3D ( 'NONE', #127, #100, #128 ) ;
#65 = APPROVAL_STATUS ( 'not_yet_approved' ) ;
#66 = DIRECTION ( 'NONE',  ( 1.000000000000000000, 0.0000000000000000000, 0.0000000000000000000 ) ) ;
#67 = EDGE_LOOP ( 'NONE', ( #107, #120, #112, #116 ) ) ;
#68 = EDGE_CURVE ( 'NONE', #130, #58, #122, .T. ) ;
#69 = LOCAL_TIME ( 11, 29, 25.00000000000000000, #135 ) ;
#70 = AXIS2_PLACEMENT_3D ( 'NONE', #7, #162, #73 ) ;
#71 = APPROVAL_PERSON_ORGANIZATION ( #111, #164, #81 ) ;
#72 = DIRECTION ( 'NONE',  ( 0.0000000000000000000, 0.0000000000000000000, -1.000000000000000000 ) ) ;
#73 = DIRECTION ( 'NONE',  ( 0.0000000000000000000, 0.0000000000000000000, 1.000000000000000000 ) ) ;
#74 = CC_DESIGN_PERSON_AND_ORGANIZATION_ASSIGNMENT ( #150, #78, ( #97 ) ) ;
#75 = ADVANCED_BREP_SHAPE_REPRESENTATION ( 'Web Model 89559', ( #137, #123 ), #12 ) ;
#76 = DATE_AND_TIME ( #4, #69 ) ;
#77 = DIRECTION ( 'NONE',  ( -1.000000000000000000, -0.0000000000000000000, -0.0000000000000000000 ) ) ;
#78 = PERSON_AND_ORGANIZATION_ROLE ( 'design_owner' ) ;
#79 = PERSON_AND_ORGANIZATION ( #155, #17 ) ;
#80 = EDGE_LOOP ( 'NONE', ( #53, #153 ) ) ;
#81 = APPROVAL_ROLE ( '' ) ;
#82 = EDGE_CURVE ( 'NONE', #130, #86, #62, .T. ) ;
#83 = PERSON_AND_ORGANIZATION_ROLE ( 'creator' ) ;
#84 = PERSON_AND_ORGANIZATION ( #155, #17 ) ;
#85 = DESIGN_CONTEXT ( 'detailed design', #102, 'design' ) ;
#86 = VERTEX_POINT ( 'NONE', #5 ) ;
#87 = ORIENTED_EDGE ( 'NONE', *, *, #30, .F. ) ;
#88 = SECURITY_CLASSIFICATION ( '', '', #29 ) ;
#89 = CARTESIAN_POINT ( 'NONE',  ( 1.000000000000000000, 0.0000000000000000000, 0.0000000000000000000 ) ) ;
#90 = FACE_OUTER_BOUND ( 'NONE', #95, .T. ) ;
#91 = LOCAL_TIME ( 11, 29, 25.00000000000000000, #57 ) ;
#92 = CC_DESIGN_APPROVAL ( #144, ( #172 ) ) ;
#93 = CYLINDRICAL_SURFACE ( 'NONE', #61, 6.250000000000000000 ) ;
#94 = APPROVAL_ROLE ( '' ) ;
#95 = EDGE_LOOP ( 'NONE', ( #55, #87 ) ) ;
#96 = EDGE_CURVE ( 'NONE', #13, #86, #160, .T. ) ;
#97 = PRODUCT ( 'Web Model 89559', 'Web Model 89559', '', ( #132 ) ) ;
#98 = DIRECTION ( 'NONE',  ( 0.0000000000000000000, 0.0000000000000000000, 1.000000000000000000 ) ) ;
#99 = DIRECTION ( 'NONE',  ( -1.000000000000000000, -0.0000000000000000000, -0.0000000000000000000 ) ) ;
#100 = DIRECTION ( 'NONE',  ( 1.000000000000000000, 0.0000000000000000000, 0.0000000000000000000 ) ) ;
#101 = PERSON_AND_ORGANIZATION_ROLE ( 'creator' ) ;
#102 = APPLICATION_CONTEXT ( 'configuration controlled 3d designs of mechanical parts and assemblies' ) ;
#103 = APPLICATION_PROTOCOL_DEFINITION ( 'international standard', 'config_control_design', 1994, #102 ) ;
#104 = CALENDAR_DATE ( 2017, 1, 2 ) ;
#105 = APPROVAL_STATUS ( 'not_yet_approved' ) ;
#106 = APPROVAL_DATE_TIME ( #129, #131 ) ;
#107 = ORIENTED_EDGE ( 'NONE', *, *, #82, .F. ) ;
#108 = EDGE_CURVE ( 'NONE', #58, #130, #158, .T. ) ;
#109 = AXIS2_PLACEMENT_3D ( 'NONE', #34, #133, #119 ) ;
#110 = PERSON_AND_ORGANIZATION ( #155, #17 ) ;
#111 = PERSON_AND_ORGANIZATION ( #155, #17 ) ;
#112 = ORIENTED_EDGE ( 'NONE', *, *, #51, .T. ) ;
#113 = DIRECTION ( 'NONE',  ( 0.0000000000000000000, 0.0000000000000000000, -1.000000000000000000 ) ) ;
#114 = AXIS2_PLACEMENT_3D ( 'NONE', #117, #126, #154 ) ;
#115 = DIRECTION ( 'NONE',  ( 1.000000000000000000, 0.0000000000000000000, 0.0000000000000000000 ) ) ;
#116 = ORIENTED_EDGE ( 'NONE', *, *, #96, .T. ) ;
#117 = CARTESIAN_POINT ( 'NONE',  ( 1.000000000000000000, 0.0000000000000000000, 0.0000000000000000000 ) ) ;
#118 = APPROVAL_DATE_TIME ( #167, #144 ) ;
#119 = DIRECTION ( 'NONE',  ( 0.0000000000000000000, 0.0000000000000000000, -1.000000000000000000 ) ) ;
#120 = ORIENTED_EDGE ( 'NONE', *, *, #108, .F. ) ;
#121 = ADVANCED_FACE ( 'NONE', ( #139 ), #6, .T. ) ;
#122 = CIRCLE ( 'NONE', #64, 6.250000000000000000 ) ;
#123 = AXIS2_PLACEMENT_3D ( 'NONE', #171, #38, #66 ) ;
#124 = CARTESIAN_POINT ( 'NONE',  ( 1.000000000000000000, 0.0000000000000000000, 6.250000000000000000 ) ) ;
#125 = CIRCLE ( 'NONE', #33, 6.250000000000000000 ) ;
#126 = DIRECTION ( 'NONE',  ( 1.000000000000000000, 0.0000000000000000000, 0.0000000000000000000 ) ) ;
#127 = CARTESIAN_POINT ( 'NONE',  ( 1.000000000000000000, 0.0000000000000000000, 0.0000000000000000000 ) ) ;
#128 = DIRECTION ( 'NONE',  ( 0.0000000000000000000, 0.0000000000000000000, -1.000000000000000000 ) ) ;
#129 = DATE_AND_TIME ( #104, #91 ) ;
#130 = VERTEX_POINT ( 'NONE', #59 ) ;
#131 = APPROVAL ( #105, 'UNSPECIFIED' ) ;
#132 = MECHANICAL_CONTEXT ( 'NONE', #175, 'mechanical' ) ;
#133 = DIRECTION ( 'NONE',  ( 1.000000000000000000, 0.0000000000000000000, 0.0000000000000000000 ) ) ;
#134 =( NAMED_UNIT ( * ) SI_UNIT ( $, .STERADIAN. ) SOLID_ANGLE_UNIT ( ) );
#135 = COORDINATED_UNIVERSAL_TIME_OFFSET ( 5, 0, .BEHIND. ) ;
#136 = CYLINDRICAL_SURFACE ( 'NONE', #70, 6.250000000000000000 ) ;
#137 = MANIFOLD_SOLID_BREP ( 'Extrude1', #170 ) ;
#138 = CC_DESIGN_PERSON_AND_ORGANIZATION_ASSIGNMENT ( #27, #174, ( #88 ) ) ;
#139 = FACE_OUTER_BOUND ( 'NONE', #80, .T. ) ;
#140 = CARTESIAN_POINT ( 'NONE',  ( 0.0000000000000000000, 0.0000000000000000000, 0.0000000000000000000 ) ) ;
#141 = COORDINATED_UNIVERSAL_TIME_OFFSET ( 5, 0, .BEHIND. ) ;
#142 = DIRECTION ( 'NONE',  ( 1.000000000000000000, 0.0000000000000000000, 0.0000000000000000000 ) ) ;
#143 = DIRECTION ( 'NONE',  ( 1.000000000000000000, 0.0000000000000000000, 0.0000000000000000000 ) ) ;
#144 = APPROVAL ( #65, 'UNSPECIFIED' ) ;
#145 = DATE_AND_TIME ( #146, #156 ) ;
#146 = CALENDAR_DATE ( 2017, 1, 2 ) ;
#147 = CC_DESIGN_DATE_AND_TIME_ASSIGNMENT ( #32, #159, ( #172 ) ) ;
#148 = ORIENTED_EDGE ( 'NONE', *, *, #68, .F. ) ;
#149 = ADVANCED_FACE ( 'NONE', ( #90 ), #166, .F. ) ;
#150 = PERSON_AND_ORGANIZATION ( #155, #17 ) ;
#151 = PRODUCT_DEFINITION_FORMATION_WITH_SPECIFIED_SOURCE ( 'ANY', '', #97, .NOT_KNOWN. ) ;
#152 = CARTESIAN_POINT ( 'NONE',  ( 1.000000000000000000, 7.654042494670957600E-016, -6.250000000000000000 ) ) ;
#153 = ORIENTED_EDGE ( 'NONE', *, *, #68, .T. ) ;
#154 = DIRECTION ( 'NONE',  ( 0.0000000000000000000, 0.0000000000000000000, -1.000000000000000000 ) ) ;
#155 = PERSON ( 'UNSPECIFIED', 'UNSPECIFIED', 'UNSPECIFIED', ('UNSPECIFIED'), ('UNSPECIFIED'), ('UNSPECIFIED') ) ;
#156 = LOCAL_TIME ( 11, 29, 25.00000000000000000, #52 ) ;
#157 = CC_DESIGN_PERSON_AND_ORGANIZATION_ASSIGNMENT ( #21, #101, ( #151 ) ) ;
#158 = CIRCLE ( 'NONE', #56, 6.250000000000000000 ) ;
#159 = DATE_TIME_ROLE ( 'creation_date' ) ;
#160 = CIRCLE ( 'NONE', #19, 6.250000000000000000 ) ;
#161 = ORIENTED_EDGE ( 'NONE', *, *, #82, .T. ) ;
#162 = DIRECTION ( 'NONE',  ( -1.000000000000000000, -0.0000000000000000000, -0.0000000000000000000 ) ) ;
#163 = FACE_OUTER_BOUND ( 'NONE', #31, .T. ) ;
#164 = APPROVAL ( #50, 'UNSPECIFIED' ) ;
#165 = CARTESIAN_POINT ( 'NONE',  ( 0.0000000000000000000, 0.0000000000000000000, 6.250000000000000000 ) ) ;
#166 = PLANE ( 'NONE',  #109 ) ;
#167 = DATE_AND_TIME ( #16, #36 ) ;
#168 = CC_DESIGN_PERSON_AND_ORGANIZATION_ASSIGNMENT ( #43, #40, ( #151 ) ) ;
#169 = CALENDAR_DATE ( 2017, 1, 2 ) ;
#170 = CLOSED_SHELL ( 'NONE', ( #20, #2, #121, #149 ) ) ;
#171 = CARTESIAN_POINT ( 'NONE',  ( 0.0000000000000000000, 0.0000000000000000000, 0.0000000000000000000 ) ) ;
#172 = PRODUCT_DEFINITION ( 'UNKNOWN', '', #151, #85 ) ;
#173 = APPROVAL_DATE_TIME ( #76, #164 ) ;
#174 = PERSON_AND_ORGANIZATION_ROLE ( 'classification_officer' ) ;
#175 = APPLICATION_CONTEXT ( 'configuration controlled 3d designs of mechanical parts and assemblies' ) ;
ENDSEC;
END-ISO-10303-21;
