ISO-10303-21;
HEADER;
FILE_DESCRIPTION (( 'STEP AP203' ),
    '1' );
FILE_NAME ('Web Model 43367_20867.step',
    '2022-03-16T13:55:48',
    ( '' ),
    ( '' ),
    'SwSTEP 2.0',
    'SolidWorks 2021',
    '' );
FILE_SCHEMA (( 'CONFIG_CONTROL_DESIGN' ));
ENDSEC;

DATA;
#1 = LOCAL_TIME ( 9, 55, 48.00000000000000000, #88 ) ;
#2 = APPROVAL_PERSON_ORGANIZATION ( #37, #82, #95 ) ;
#3 = APPROVAL_STATUS ( 'not_yet_approved' ) ;
#4 = VECTOR ( 'NONE', #166, 1000.000000000000000 ) ;
#5 = DIRECTION ( 'NONE',  ( -0.000000000000000000, -0.000000000000000000, -1.000000000000000000 ) ) ;
#6 = CARTESIAN_POINT ( 'NONE',  ( -7.500000000000000000, 0.000000000000000000, 0.5000000000000000000 ) ) ;
#7 = PERSON_AND_ORGANIZATION_ROLE ( 'design_supplier' ) ;
#8 = PERSON_AND_ORGANIZATION_ROLE ( 'creator' ) ;
#9 = COORDINATED_UNIVERSAL_TIME_OFFSET ( 5, 0, .BEHIND. ) ;
#10 = PRODUCT_DEFINITION ( 'UNKNOWN', '', #159, #27 ) ;
#11 = CARTESIAN_POINT ( 'NONE',  ( 0.000000000000000000, 0.000000000000000000, 0.5000000000000000000 ) ) ;
#12 = AXIS2_PLACEMENT_3D ( 'NONE', #32, #128, #169 ) ;
#13 = ORIENTED_EDGE ( 'NONE', *, *, #59, .F. ) ;
#14 = FACE_OUTER_BOUND ( 'NONE', #161, .T. ) ;
#15 = CC_DESIGN_APPROVAL ( #68, ( #10 ) ) ;
#16 = PERSON_AND_ORGANIZATION_ROLE ( 'creator' ) ;
#17 = APPROVAL_ROLE ( '' ) ;
#18 = AXIS2_PLACEMENT_3D ( 'NONE', #43, #98, #67 ) ;
#19 = ADVANCED_FACE ( 'NONE', ( #137 ), #86, .T. ) ;
#20 = CARTESIAN_POINT ( 'NONE',  ( 0.000000000000000000, 0.000000000000000000, 0.000000000000000000 ) ) ;
#21 = PERSON_AND_ORGANIZATION_ROLE ( 'design_owner' ) ;
#22 = CIRCLE ( 'NONE', #12, 7.500000000000000000 ) ;
#23 = PERSON_AND_ORGANIZATION ( #108, #78 ) ;
#24 = PERSON_AND_ORGANIZATION_ROLE ( 'classification_officer' ) ;
#25 = DATE_AND_TIME ( #146, #51 ) ;
#26 = CC_DESIGN_PERSON_AND_ORGANIZATION_ASSIGNMENT ( #157, #21, ( #49 ) ) ;
#27 = DESIGN_CONTEXT ( 'detailed design', #115, 'design' ) ;
#28 = EDGE_LOOP ( 'NONE', ( #41, #84, #54, #139 ) ) ;
#29 = SECURITY_CLASSIFICATION ( '', '', #63 ) ;
#30 = EDGE_LOOP ( 'NONE', ( #165, #101 ) ) ;
#31 = DIRECTION ( 'NONE',  ( 0.000000000000000000, 0.000000000000000000, 1.000000000000000000 ) ) ;
#32 = CARTESIAN_POINT ( 'NONE',  ( 0.000000000000000000, 0.000000000000000000, 0.000000000000000000 ) ) ;
#33 = CC_DESIGN_PERSON_AND_ORGANIZATION_ASSIGNMENT ( #65, #24, ( #29 ) ) ;
#34 = CYLINDRICAL_SURFACE ( 'NONE', #47, 7.500000000000000000 ) ;
#35 = CYLINDRICAL_SURFACE ( 'NONE', #144, 7.500000000000000000 ) ;
#36 =( NAMED_UNIT ( * ) SI_UNIT ( $, .STERADIAN. ) SOLID_ANGLE_UNIT ( ) );
#37 = PERSON_AND_ORGANIZATION ( #108, #78 ) ;
#38 = DATE_AND_TIME ( #145, #112 ) ;
#39 = PRODUCT_RELATED_PRODUCT_CATEGORY ( 'detail', '', ( #49 ) ) ;
#40 = CC_DESIGN_APPROVAL ( #82, ( #159 ) ) ;
#41 = ORIENTED_EDGE ( 'NONE', *, *, #83, .F. ) ;
#42 = VERTEX_POINT ( 'NONE', #150 ) ;
#43 = CARTESIAN_POINT ( 'NONE',  ( 0.000000000000000000, 0.000000000000000000, 0.5000000000000000000 ) ) ;
#44 = CC_DESIGN_SECURITY_CLASSIFICATION ( #29, ( #159 ) ) ;
#45 = DIRECTION ( 'NONE',  ( -1.000000000000000000, 0.000000000000000000, 0.000000000000000000 ) ) ;
#46 = EDGE_CURVE ( 'NONE', #163, #149, #110, .T. ) ;
#47 = AXIS2_PLACEMENT_3D ( 'NONE', #90, #89, #75 ) ;
#48 = LINE ( 'NONE', #156, #168 ) ;
#49 = PRODUCT ( 'Web Model 43367_20867', 'Web Model 43367_20867', '', ( #171 ) ) ;
#50 = CALENDAR_DATE ( 2022, 16, 3 ) ;
#51 = LOCAL_TIME ( 9, 55, 48.00000000000000000, #109 ) ;
#52 = ADVANCED_FACE ( 'NONE', ( #14 ), #69, .F. ) ;
#53 = DATE_AND_TIME ( #96, #56 ) ;
#54 = ORIENTED_EDGE ( 'NONE', *, *, #124, .T. ) ;
#55 = CLOSED_SHELL ( 'NONE', ( #151, #135, #19, #52 ) ) ;
#56 = LOCAL_TIME ( 9, 55, 48.00000000000000000, #143 ) ;
#57 = CARTESIAN_POINT ( 'NONE',  ( 0.000000000000000000, 0.000000000000000000, 0.000000000000000000 ) ) ;
#58 = CALENDAR_DATE ( 2022, 16, 3 ) ;
#59 = EDGE_CURVE ( 'NONE', #42, #113, #22, .T. ) ;
#60 = AXIS2_PLACEMENT_3D ( 'NONE', #20, #105, #73 ) ;
#61 =( NAMED_UNIT ( * ) PLANE_ANGLE_UNIT ( ) SI_UNIT ( $, .RADIAN. ) );
#62 = CARTESIAN_POINT ( 'NONE',  ( 7.500000000000000000, 9.184850993605147944E-16, 0.000000000000000000 ) ) ;
#63 = SECURITY_CLASSIFICATION_LEVEL ( 'unclassified' ) ;
#64 = DATE_TIME_ROLE ( 'creation_date' ) ;
#65 = PERSON_AND_ORGANIZATION ( #108, #78 ) ;
#66 = CC_DESIGN_PERSON_AND_ORGANIZATION_ASSIGNMENT ( #140, #16, ( #10 ) ) ;
#67 = DIRECTION ( 'NONE',  ( 1.000000000000000000, 0.000000000000000000, -0.000000000000000000 ) ) ;
#68 = APPROVAL ( #3, 'UNSPECIFIED' ) ;
#69 = PLANE ( 'NONE',  #74 ) ;
#70 = EDGE_CURVE ( 'NONE', #149, #163, #172, .T. ) ;
#71 = ORIENTED_EDGE ( 'NONE', *, *, #70, .F. ) ;
#72 = FACE_OUTER_BOUND ( 'NONE', #28, .T. ) ;
#73 = DIRECTION ( 'NONE',  ( 1.000000000000000000, 0.000000000000000000, 0.000000000000000000 ) ) ;
#74 = AXIS2_PLACEMENT_3D ( 'NONE', #57, #31, #138 ) ;
#75 = DIRECTION ( 'NONE',  ( -1.000000000000000000, 0.000000000000000000, 0.000000000000000000 ) ) ;
#76 = CARTESIAN_POINT ( 'NONE',  ( 0.000000000000000000, 0.000000000000000000, 0.000000000000000000 ) ) ;
#77 = APPLICATION_PROTOCOL_DEFINITION ( 'international standard', 'config_control_design', 1994, #115 ) ;
#78 = ORGANIZATION ( 'UNSPECIFIED', 'UNSPECIFIED', '' ) ;
#79 = APPROVAL_STATUS ( 'not_yet_approved' ) ;
#80 = DATE_TIME_ROLE ( 'classification_date' ) ;
#81 = EDGE_LOOP ( 'NONE', ( #71, #99, #127, #164 ) ) ;
#82 = APPROVAL ( #174, 'UNSPECIFIED' ) ;
#83 = EDGE_CURVE ( 'NONE', #149, #113, #48, .T. ) ;
#84 = ORIENTED_EDGE ( 'NONE', *, *, #46, .F. ) ;
#85 = CC_DESIGN_PERSON_AND_ORGANIZATION_ASSIGNMENT ( #23, #7, ( #159 ) ) ;
#86 = PLANE ( 'NONE',  #18 ) ;
#87 = CC_DESIGN_DATE_AND_TIME_ASSIGNMENT ( #38, #64, ( #10 ) ) ;
#88 = COORDINATED_UNIVERSAL_TIME_OFFSET ( 5, 0, .BEHIND. ) ;
#89 = DIRECTION ( 'NONE',  ( -0.000000000000000000, -0.000000000000000000, -1.000000000000000000 ) ) ;
#90 = CARTESIAN_POINT ( 'NONE',  ( 0.000000000000000000, 0.000000000000000000, 0.5000000000000000000 ) ) ;
#91 = DIRECTION ( 'NONE',  ( 1.000000000000000000, 0.000000000000000000, 0.000000000000000000 ) ) ;
#92 = FACE_OUTER_BOUND ( 'NONE', #81, .T. ) ;
#93 = APPROVAL ( #79, 'UNSPECIFIED' ) ;
#94 = CIRCLE ( 'NONE', #60, 7.500000000000000000 ) ;
#95 = APPROVAL_ROLE ( '' ) ;
#96 = CALENDAR_DATE ( 2022, 16, 3 ) ;
#97 = AXIS2_PLACEMENT_3D ( 'NONE', #76, #117, #91 ) ;
#98 = DIRECTION ( 'NONE',  ( 0.000000000000000000, 0.000000000000000000, 1.000000000000000000 ) ) ;
#99 = ORIENTED_EDGE ( 'NONE', *, *, #83, .T. ) ;
#100 = DIRECTION ( 'NONE',  ( 0.000000000000000000, 0.000000000000000000, 1.000000000000000000 ) ) ;
#101 = ORIENTED_EDGE ( 'NONE', *, *, #70, .T. ) ;
#102 = CARTESIAN_POINT ( 'NONE',  ( 7.500000000000000000, 9.184850993605147944E-16, 0.5000000000000000000 ) ) ;
#103 = DIRECTION ( 'NONE',  ( 0.000000000000000000, 0.000000000000000000, 1.000000000000000000 ) ) ;
#104 = PRODUCT_DEFINITION_SHAPE ( 'NONE', 'NONE',  #10 ) ;
#105 = DIRECTION ( 'NONE',  ( 0.000000000000000000, 0.000000000000000000, 1.000000000000000000 ) ) ;
#106 = APPLICATION_CONTEXT ( 'configuration controlled 3d designs of mechanical parts and assemblies' ) ;
#107 = APPROVAL_ROLE ( '' ) ;
#108 = PERSON ( 'UNSPECIFIED', 'UNSPECIFIED', 'UNSPECIFIED', ('UNSPECIFIED'), ('UNSPECIFIED'), ('UNSPECIFIED') ) ;
#109 = COORDINATED_UNIVERSAL_TIME_OFFSET ( 5, 0, .BEHIND. ) ;
#110 = CIRCLE ( 'NONE', #153, 7.500000000000000000 ) ;
#111 = ORIENTED_EDGE ( 'NONE', *, *, #118, .F. ) ;
#112 = LOCAL_TIME ( 9, 55, 48.00000000000000000, #9 ) ;
#113 = VERTEX_POINT ( 'NONE', #62 ) ;
#114 = APPROVAL_DATE_TIME ( #116, #68 ) ;
#115 = APPLICATION_CONTEXT ( 'configuration controlled 3d designs of mechanical parts and assemblies' ) ;
#116 = DATE_AND_TIME ( #58, #1 ) ;
#117 = DIRECTION ( 'NONE',  ( 0.000000000000000000, 0.000000000000000000, 1.000000000000000000 ) ) ;
#118 = EDGE_CURVE ( 'NONE', #113, #42, #94, .T. ) ;
#119 = CARTESIAN_POINT ( 'NONE',  ( -7.500000000000000000, 0.000000000000000000, 0.5000000000000000000 ) ) ;
#120 = LOCAL_TIME ( 9, 55, 48.00000000000000000, #175 ) ;
#121 = APPROVAL_DATE_TIME ( #53, #93 ) ;
#122 = APPROVAL_PERSON_ORGANIZATION ( #167, #68, #17 ) ;
#123 = PERSON_AND_ORGANIZATION ( #108, #78 ) ;
#124 = EDGE_CURVE ( 'NONE', #163, #42, #170, .T. ) ;
#125 = ADVANCED_BREP_SHAPE_REPRESENTATION ( 'Web Model 43367_20867', ( #162, #97 ), #141 ) ;
#126 = CC_DESIGN_APPROVAL ( #93, ( #29 ) ) ;
#127 = ORIENTED_EDGE ( 'NONE', *, *, #118, .T. ) ;
#128 = DIRECTION ( 'NONE',  ( 0.000000000000000000, 0.000000000000000000, 1.000000000000000000 ) ) ;
#129 = AXIS2_PLACEMENT_3D ( 'NONE', #155, #103, #152 ) ;
#130 = DIRECTION ( 'NONE',  ( -0.000000000000000000, -0.000000000000000000, -1.000000000000000000 ) ) ;
#131 = APPLICATION_PROTOCOL_DEFINITION ( 'international standard', 'config_control_design', 1994, #106 ) ;
#132 = PERSON_AND_ORGANIZATION ( #108, #78 ) ;
#133 = APPROVAL_PERSON_ORGANIZATION ( #123, #93, #107 ) ;
#134 = APPROVAL_DATE_TIME ( #173, #82 ) ;
#135 = ADVANCED_FACE ( 'NONE', ( #72 ), #35, .T. ) ;
#136 = CC_DESIGN_DATE_AND_TIME_ASSIGNMENT ( #25, #80, ( #29 ) ) ;
#137 = FACE_OUTER_BOUND ( 'NONE', #30, .T. ) ;
#138 = DIRECTION ( 'NONE',  ( 1.000000000000000000, 0.000000000000000000, -0.000000000000000000 ) ) ;
#139 = ORIENTED_EDGE ( 'NONE', *, *, #59, .T. ) ;
#140 = PERSON_AND_ORGANIZATION ( #108, #78 ) ;
#141 =( GEOMETRIC_REPRESENTATION_CONTEXT ( 3 ) GLOBAL_UNCERTAINTY_ASSIGNED_CONTEXT ( ( #147 ) ) GLOBAL_UNIT_ASSIGNED_CONTEXT ( ( #154, #61, #36 ) ) REPRESENTATION_CONTEXT ( 'NONE', 'WORKASPACE' ) );
#142 = CARTESIAN_POINT ( 'NONE',  ( 0.000000000000000000, 0.000000000000000000, 0.5000000000000000000 ) ) ;
#143 = COORDINATED_UNIVERSAL_TIME_OFFSET ( 5, 0, .BEHIND. ) ;
#144 = AXIS2_PLACEMENT_3D ( 'NONE', #142, #130, #45 ) ;
#145 = CALENDAR_DATE ( 2022, 16, 3 ) ;
#146 = CALENDAR_DATE ( 2022, 16, 3 ) ;
#147 = UNCERTAINTY_MEASURE_WITH_UNIT (LENGTH_MEASURE( 1.000000000000000082E-05 ), #154, 'distance_accuracy_value', 'NONE');
#148 = DIRECTION ( 'NONE',  ( 1.000000000000000000, 0.000000000000000000, 0.000000000000000000 ) ) ;
#149 = VERTEX_POINT ( 'NONE', #102 ) ;
#150 = CARTESIAN_POINT ( 'NONE',  ( -7.500000000000000000, 0.000000000000000000, 0.000000000000000000 ) ) ;
#151 = ADVANCED_FACE ( 'NONE', ( #92 ), #34, .T. ) ;
#152 = DIRECTION ( 'NONE',  ( 1.000000000000000000, 0.000000000000000000, 0.000000000000000000 ) ) ;
#153 = AXIS2_PLACEMENT_3D ( 'NONE', #11, #100, #148 ) ;
#154 =( LENGTH_UNIT ( ) NAMED_UNIT ( * ) SI_UNIT ( .MILLI., .METRE. ) );
#155 = CARTESIAN_POINT ( 'NONE',  ( 0.000000000000000000, 0.000000000000000000, 0.5000000000000000000 ) ) ;
#156 = CARTESIAN_POINT ( 'NONE',  ( 7.500000000000000000, 9.184850993605147944E-16, 0.5000000000000000000 ) ) ;
#157 = PERSON_AND_ORGANIZATION ( #108, #78 ) ;
#158 = SHAPE_DEFINITION_REPRESENTATION ( #104, #125 ) ;
#159 = PRODUCT_DEFINITION_FORMATION_WITH_SPECIFIED_SOURCE ( 'ANY', '', #49, .NOT_KNOWN. ) ;
#160 = CC_DESIGN_PERSON_AND_ORGANIZATION_ASSIGNMENT ( #132, #8, ( #159 ) ) ;
#161 = EDGE_LOOP ( 'NONE', ( #13, #111 ) ) ;
#162 = MANIFOLD_SOLID_BREP ( 'Boss-Extrude1', #55 ) ;
#163 = VERTEX_POINT ( 'NONE', #119 ) ;
#164 = ORIENTED_EDGE ( 'NONE', *, *, #124, .F. ) ;
#165 = ORIENTED_EDGE ( 'NONE', *, *, #46, .T. ) ;
#166 = DIRECTION ( 'NONE',  ( -0.000000000000000000, -0.000000000000000000, -1.000000000000000000 ) ) ;
#167 = PERSON_AND_ORGANIZATION ( #108, #78 ) ;
#168 = VECTOR ( 'NONE', #5, 1000.000000000000000 ) ;
#169 = DIRECTION ( 'NONE',  ( 1.000000000000000000, 0.000000000000000000, 0.000000000000000000 ) ) ;
#170 = LINE ( 'NONE', #6, #4 ) ;
#171 = MECHANICAL_CONTEXT ( 'NONE', #106, 'mechanical' ) ;
#172 = CIRCLE ( 'NONE', #129, 7.500000000000000000 ) ;
#173 = DATE_AND_TIME ( #50, #120 ) ;
#174 = APPROVAL_STATUS ( 'not_yet_approved' ) ;
#175 = COORDINATED_UNIVERSAL_TIME_OFFSET ( 5, 0, .BEHIND. ) ;
ENDSEC;
END-ISO-10303-21;
