ISO-10303-21;
HEADER;
FILE_DESCRIPTION (( 'STEP AP203' ),
    '1' );
FILE_NAME ('34427_37010.step',
    '2017-09-06T15:33:21',
    ( '' ),
    ( '' ),
    'SwSTEP 2.0',
    'SolidWorks 2016',
    '' );
FILE_SCHEMA (( 'CONFIG_CONTROL_DESIGN' ));
ENDSEC;

DATA;
#1 = ADVANCED_FACE ( 'NONE', ( #23 ), #40, .T. ) ;
#2 = ADVANCED_FACE ( 'NONE', ( #85 ), #48, .F. ) ;
#3 = APPROVAL_PERSON_ORGANIZATION ( #42, #172, #14 ) ;
#4 = CIRCLE ( 'NONE', #139, 25.00000000000000000 ) ;
#5 = CC_DESIGN_PERSON_AND_ORGANIZATION_ASSIGNMENT ( #71, #12, ( #58 ) ) ;
#6 = COORDINATED_UNIVERSAL_TIME_OFFSET ( 5, 0, .BEHIND. ) ;
#7 = CC_DESIGN_PERSON_AND_ORGANIZATION_ASSIGNMENT ( #108, #27, ( #107 ) ) ;
#8 = AXIS2_PLACEMENT_3D ( 'NONE', #10, #11, #24 ) ;
#9 = FACE_OUTER_BOUND ( 'NONE', #157, .T. ) ;
#10 = CARTESIAN_POINT ( 'NONE',  ( 0.0000000000000000000, 0.0000000000000000000, 0.0000000000000000000 ) ) ;
#11 = DIRECTION ( 'NONE',  ( 0.0000000000000000000, 0.0000000000000000000, 1.000000000000000000 ) ) ;
#12 = PERSON_AND_ORGANIZATION_ROLE ( 'classification_officer' ) ;
#13 = DATE_AND_TIME ( #43, #174 ) ;
#14 = APPROVAL_ROLE ( '' ) ;
#15 = CARTESIAN_POINT ( 'NONE',  ( 25.00000000000000000, 3.061616997868383000E-015, 0.0000000000000000000 ) ) ;
#16 = PERSON_AND_ORGANIZATION_ROLE ( 'design_owner' ) ;
#17 = PERSON_AND_ORGANIZATION ( #119, #142 ) ;
#18 = ORIENTED_EDGE ( 'NONE', *, *, #73, .F. ) ;
#19 = LOCAL_TIME ( 11, 33, 21.00000000000000000, #155 ) ;
#20 = ORIENTED_EDGE ( 'NONE', *, *, #81, .F. ) ;
#21 = CYLINDRICAL_SURFACE ( 'NONE', #120, 25.00000000000000000 ) ;
#22 = APPROVAL_DATE_TIME ( #87, #117 ) ;
#23 = FACE_OUTER_BOUND ( 'NONE', #133, .T. ) ;
#24 = DIRECTION ( 'NONE',  ( 1.000000000000000000, 0.0000000000000000000, -0.0000000000000000000 ) ) ;
#25 = VERTEX_POINT ( 'NONE', #116 ) ;
#26 = CC_DESIGN_PERSON_AND_ORGANIZATION_ASSIGNMENT ( #52, #66, ( #90 ) ) ;
#27 = PERSON_AND_ORGANIZATION_ROLE ( 'design_supplier' ) ;
#28 = VERTEX_POINT ( 'NONE', #34 ) ;
#29 = CIRCLE ( 'NONE', #106, 25.00000000000000000 ) ;
#30 = CC_DESIGN_SECURITY_CLASSIFICATION ( #58, ( #107 ) ) ;
#31 = DATE_AND_TIME ( #102, #19 ) ;
#32 = VECTOR ( 'NONE', #59, 1000.000000000000000 ) ;
#33 = UNCERTAINTY_MEASURE_WITH_UNIT (LENGTH_MEASURE( 1.000000000000000100E-005 ), #63, 'distance_accuracy_value', 'NONE');
#34 = CARTESIAN_POINT ( 'NONE',  ( 25.00000000000000000, 3.061616997868383000E-015, 1.000000000000000000 ) ) ;
#35 = CARTESIAN_POINT ( 'NONE',  ( -25.00000000000000000, 0.0000000000000000000, 1.000000000000000000 ) ) ;
#36 = DIRECTION ( 'NONE',  ( 0.0000000000000000000, 0.0000000000000000000, 1.000000000000000000 ) ) ;
#37 = CC_DESIGN_PERSON_AND_ORGANIZATION_ASSIGNMENT ( #122, #65, ( #107 ) ) ;
#38 = APPLICATION_PROTOCOL_DEFINITION ( 'international standard', 'config_control_design', 1994, #50 ) ;
#39 = MECHANICAL_CONTEXT ( 'NONE', #50, 'mechanical' ) ;
#40 = CYLINDRICAL_SURFACE ( 'NONE', #173, 25.00000000000000000 ) ;
#41 = PRODUCT_DEFINITION_SHAPE ( 'NONE', 'NONE',  #90 ) ;
#42 = PERSON_AND_ORGANIZATION ( #119, #142 ) ;
#43 = CALENDAR_DATE ( 2017, 6, 9 ) ;
#44 = CC_DESIGN_APPROVAL ( #136, ( #58 ) ) ;
#45 = LOCAL_TIME ( 11, 33, 21.00000000000000000, #110 ) ;
#46 = ORIENTED_EDGE ( 'NONE', *, *, #73, .T. ) ;
#47 = CARTESIAN_POINT ( 'NONE',  ( 0.0000000000000000000, 0.0000000000000000000, 1.000000000000000000 ) ) ;
#48 = PLANE ( 'NONE',  #8 ) ;
#49 = DIRECTION ( 'NONE',  ( -0.0000000000000000000, -0.0000000000000000000, -1.000000000000000000 ) ) ;
#50 = APPLICATION_CONTEXT ( 'configuration controlled 3d designs of mechanical parts and assemblies' ) ;
#51 = APPROVAL_STATUS ( 'not_yet_approved' ) ;
#52 = PERSON_AND_ORGANIZATION ( #119, #142 ) ;
#53 = APPLICATION_CONTEXT ( 'configuration controlled 3d designs of mechanical parts and assemblies' ) ;
#54 = ORIENTED_EDGE ( 'NONE', *, *, #137, .F. ) ;
#55 = ADVANCED_FACE ( 'NONE', ( #127 ), #21, .T. ) ;
#56 = MANIFOLD_SOLID_BREP ( 'Boss-Extrude1', #124 ) ;
#57 = CIRCLE ( 'NONE', #68, 25.00000000000000000 ) ;
#58 = SECURITY_CLASSIFICATION ( '', '', #62 ) ;
#59 = DIRECTION ( 'NONE',  ( -0.0000000000000000000, -0.0000000000000000000, -1.000000000000000000 ) ) ;
#60 = DIRECTION ( 'NONE',  ( 0.0000000000000000000, 0.0000000000000000000, 1.000000000000000000 ) ) ;
#61 = ORIENTED_EDGE ( 'NONE', *, *, #70, .T. ) ;
#62 = SECURITY_CLASSIFICATION_LEVEL ( 'unclassified' ) ;
#63 =( LENGTH_UNIT ( ) NAMED_UNIT ( * ) SI_UNIT ( .MILLI., .METRE. ) );
#64 = APPROVAL_DATE_TIME ( #31, #136 ) ;
#65 = PERSON_AND_ORGANIZATION_ROLE ( 'creator' ) ;
#66 = PERSON_AND_ORGANIZATION_ROLE ( 'creator' ) ;
#67 = APPROVAL_DATE_TIME ( #105, #172 ) ;
#68 = AXIS2_PLACEMENT_3D ( 'NONE', #143, #75, #77 ) ;
#69 = CALENDAR_DATE ( 2017, 6, 9 ) ;
#70 = EDGE_CURVE ( 'NONE', #28, #25, #4, .T. ) ;
#71 = PERSON_AND_ORGANIZATION ( #119, #142 ) ;
#72 = EDGE_LOOP ( 'NONE', ( #20, #113, #76, #46 ) ) ;
#73 = EDGE_CURVE ( 'NONE', #135, #158, #57, .T. ) ;
#74 =( GEOMETRIC_REPRESENTATION_CONTEXT ( 3 ) GLOBAL_UNCERTAINTY_ASSIGNED_CONTEXT ( ( #33 ) ) GLOBAL_UNIT_ASSIGNED_CONTEXT ( ( #63, #168, #154 ) ) REPRESENTATION_CONTEXT ( 'NONE', 'WORKASPACE' ) );
#75 = DIRECTION ( 'NONE',  ( 0.0000000000000000000, 0.0000000000000000000, 1.000000000000000000 ) ) ;
#76 = ORIENTED_EDGE ( 'NONE', *, *, #137, .T. ) ;
#77 = DIRECTION ( 'NONE',  ( 1.000000000000000000, 0.0000000000000000000, 0.0000000000000000000 ) ) ;
#78 = AXIS2_PLACEMENT_3D ( 'NONE', #103, #36, #171 ) ;
#79 = PRODUCT_RELATED_PRODUCT_CATEGORY ( 'detail', '', ( #94 ) ) ;
#80 = APPROVAL_STATUS ( 'not_yet_approved' ) ;
#81 = EDGE_CURVE ( 'NONE', #28, #158, #88, .T. ) ;
#82 = EDGE_CURVE ( 'NONE', #158, #135, #163, .T. ) ;
#83 = CC_DESIGN_PERSON_AND_ORGANIZATION_ASSIGNMENT ( #111, #16, ( #94 ) ) ;
#84 = VECTOR ( 'NONE', #95, 1000.000000000000000 ) ;
#85 = FACE_OUTER_BOUND ( 'NONE', #97, .T. ) ;
#86 = DIRECTION ( 'NONE',  ( 1.000000000000000000, 0.0000000000000000000, 0.0000000000000000000 ) ) ;
#87 = DATE_AND_TIME ( #160, #99 ) ;
#88 = LINE ( 'NONE', #131, #32 ) ;
#89 = AXIS2_PLACEMENT_3D ( 'NONE', #150, #60, #153 ) ;
#90 = PRODUCT_DEFINITION ( 'UNKNOWN', '', #107, #112 ) ;
#91 = DIRECTION ( 'NONE',  ( 0.0000000000000000000, 0.0000000000000000000, 1.000000000000000000 ) ) ;
#92 = DATE_TIME_ROLE ( 'creation_date' ) ;
#93 = DIRECTION ( 'NONE',  ( 0.0000000000000000000, 0.0000000000000000000, 1.000000000000000000 ) ) ;
#94 = PRODUCT ( '34427_37010', '34427_37010', '', ( #39 ) ) ;
#95 = DIRECTION ( 'NONE',  ( -0.0000000000000000000, -0.0000000000000000000, -1.000000000000000000 ) ) ;
#96 = COORDINATED_UNIVERSAL_TIME_OFFSET ( 5, 0, .BEHIND. ) ;
#97 = EDGE_LOOP ( 'NONE', ( #18, #147 ) ) ;
#98 = CARTESIAN_POINT ( 'NONE',  ( 0.0000000000000000000, 0.0000000000000000000, 0.0000000000000000000 ) ) ;
#99 = LOCAL_TIME ( 11, 33, 21.00000000000000000, #130 ) ;
#100 = DATE_AND_TIME ( #69, #138 ) ;
#101 = APPROVAL_PERSON_ORGANIZATION ( #175, #117, #144 ) ;
#102 = CALENDAR_DATE ( 2017, 6, 9 ) ;
#103 = CARTESIAN_POINT ( 'NONE',  ( 0.0000000000000000000, 0.0000000000000000000, 1.000000000000000000 ) ) ;
#104 = PLANE ( 'NONE',  #78 ) ;
#105 = DATE_AND_TIME ( #148, #45 ) ;
#106 = AXIS2_PLACEMENT_3D ( 'NONE', #134, #169, #109 ) ;
#107 = PRODUCT_DEFINITION_FORMATION_WITH_SPECIFIED_SOURCE ( 'ANY', '', #94, .NOT_KNOWN. ) ;
#108 = PERSON_AND_ORGANIZATION ( #119, #142 ) ;
#109 = DIRECTION ( 'NONE',  ( 1.000000000000000000, 0.0000000000000000000, 0.0000000000000000000 ) ) ;
#110 = COORDINATED_UNIVERSAL_TIME_OFFSET ( 5, 0, .BEHIND. ) ;
#111 = PERSON_AND_ORGANIZATION ( #119, #142 ) ;
#112 = DESIGN_CONTEXT ( 'detailed design', #53, 'design' ) ;
#113 = ORIENTED_EDGE ( 'NONE', *, *, #162, .F. ) ;
#114 = APPROVAL_PERSON_ORGANIZATION ( #17, #136, #123 ) ;
#115 = CC_DESIGN_APPROVAL ( #172, ( #107 ) ) ;
#116 = CARTESIAN_POINT ( 'NONE',  ( -25.00000000000000000, 0.0000000000000000000, 1.000000000000000000 ) ) ;
#117 = APPROVAL ( #51, 'UNSPECIFIED' ) ;
#118 = DIRECTION ( 'NONE',  ( -0.0000000000000000000, -0.0000000000000000000, -1.000000000000000000 ) ) ;
#119 = PERSON ( 'UNSPECIFIED', 'UNSPECIFIED', 'UNSPECIFIED', ('UNSPECIFIED'), ('UNSPECIFIED'), ('UNSPECIFIED') ) ;
#120 = AXIS2_PLACEMENT_3D ( 'NONE', #140, #118, #141 ) ;
#121 = DIRECTION ( 'NONE',  ( 1.000000000000000000, 0.0000000000000000000, 0.0000000000000000000 ) ) ;
#122 = PERSON_AND_ORGANIZATION ( #119, #142 ) ;
#123 = APPROVAL_ROLE ( '' ) ;
#124 = CLOSED_SHELL ( 'NONE', ( #1, #55, #125, #2 ) ) ;
#125 = ADVANCED_FACE ( 'NONE', ( #9 ), #104, .T. ) ;
#126 = ADVANCED_BREP_SHAPE_REPRESENTATION ( '34427_37010', ( #56, #128 ), #74 ) ;
#127 = FACE_OUTER_BOUND ( 'NONE', #72, .T. ) ;
#128 = AXIS2_PLACEMENT_3D ( 'NONE', #98, #93, #121 ) ;
#129 = DIRECTION ( 'NONE',  ( -1.000000000000000000, 0.0000000000000000000, 0.0000000000000000000 ) ) ;
#130 = COORDINATED_UNIVERSAL_TIME_OFFSET ( 5, 0, .BEHIND. ) ;
#131 = CARTESIAN_POINT ( 'NONE',  ( 25.00000000000000000, 3.061616997868383000E-015, 1.000000000000000000 ) ) ;
#132 = DATE_TIME_ROLE ( 'classification_date' ) ;
#133 = EDGE_LOOP ( 'NONE', ( #149, #170, #166, #54 ) ) ;
#134 = CARTESIAN_POINT ( 'NONE',  ( 0.0000000000000000000, 0.0000000000000000000, 1.000000000000000000 ) ) ;
#135 = VERTEX_POINT ( 'NONE', #164 ) ;
#136 = APPROVAL ( #80, 'UNSPECIFIED' ) ;
#137 = EDGE_CURVE ( 'NONE', #25, #135, #152, .T. ) ;
#138 = LOCAL_TIME ( 11, 33, 21.00000000000000000, #96 ) ;
#139 = AXIS2_PLACEMENT_3D ( 'NONE', #165, #91, #86 ) ;
#140 = CARTESIAN_POINT ( 'NONE',  ( 0.0000000000000000000, 0.0000000000000000000, 1.000000000000000000 ) ) ;
#141 = DIRECTION ( 'NONE',  ( -1.000000000000000000, 0.0000000000000000000, 0.0000000000000000000 ) ) ;
#142 = ORGANIZATION ( 'UNSPECIFIED', 'UNSPECIFIED', '' ) ;
#143 = CARTESIAN_POINT ( 'NONE',  ( 0.0000000000000000000, 0.0000000000000000000, 0.0000000000000000000 ) ) ;
#144 = APPROVAL_ROLE ( '' ) ;
#145 = SHAPE_DEFINITION_REPRESENTATION ( #41, #126 ) ;
#146 = CC_DESIGN_DATE_AND_TIME_ASSIGNMENT ( #100, #132, ( #58 ) ) ;
#147 = ORIENTED_EDGE ( 'NONE', *, *, #82, .F. ) ;
#148 = CALENDAR_DATE ( 2017, 6, 9 ) ;
#149 = ORIENTED_EDGE ( 'NONE', *, *, #70, .F. ) ;
#150 = CARTESIAN_POINT ( 'NONE',  ( 0.0000000000000000000, 0.0000000000000000000, 0.0000000000000000000 ) ) ;
#151 = APPLICATION_PROTOCOL_DEFINITION ( 'international standard', 'config_control_design', 1994, #53 ) ;
#152 = LINE ( 'NONE', #35, #84 ) ;
#153 = DIRECTION ( 'NONE',  ( 1.000000000000000000, 0.0000000000000000000, 0.0000000000000000000 ) ) ;
#154 =( NAMED_UNIT ( * ) SI_UNIT ( $, .STERADIAN. ) SOLID_ANGLE_UNIT ( ) );
#155 = COORDINATED_UNIVERSAL_TIME_OFFSET ( 5, 0, .BEHIND. ) ;
#156 = APPROVAL_STATUS ( 'not_yet_approved' ) ;
#157 = EDGE_LOOP ( 'NONE', ( #161, #61 ) ) ;
#158 = VERTEX_POINT ( 'NONE', #15 ) ;
#159 = CC_DESIGN_APPROVAL ( #117, ( #90 ) ) ;
#160 = CALENDAR_DATE ( 2017, 6, 9 ) ;
#161 = ORIENTED_EDGE ( 'NONE', *, *, #162, .T. ) ;
#162 = EDGE_CURVE ( 'NONE', #25, #28, #29, .T. ) ;
#163 = CIRCLE ( 'NONE', #89, 25.00000000000000000 ) ;
#164 = CARTESIAN_POINT ( 'NONE',  ( -25.00000000000000000, 0.0000000000000000000, 0.0000000000000000000 ) ) ;
#165 = CARTESIAN_POINT ( 'NONE',  ( 0.0000000000000000000, 0.0000000000000000000, 1.000000000000000000 ) ) ;
#166 = ORIENTED_EDGE ( 'NONE', *, *, #82, .T. ) ;
#167 = CC_DESIGN_DATE_AND_TIME_ASSIGNMENT ( #13, #92, ( #90 ) ) ;
#168 =( NAMED_UNIT ( * ) PLANE_ANGLE_UNIT ( ) SI_UNIT ( $, .RADIAN. ) );
#169 = DIRECTION ( 'NONE',  ( 0.0000000000000000000, 0.0000000000000000000, 1.000000000000000000 ) ) ;
#170 = ORIENTED_EDGE ( 'NONE', *, *, #81, .T. ) ;
#171 = DIRECTION ( 'NONE',  ( 1.000000000000000000, 0.0000000000000000000, -0.0000000000000000000 ) ) ;
#172 = APPROVAL ( #156, 'UNSPECIFIED' ) ;
#173 = AXIS2_PLACEMENT_3D ( 'NONE', #47, #49, #129 ) ;
#174 = LOCAL_TIME ( 11, 33, 21.00000000000000000, #6 ) ;
#175 = PERSON_AND_ORGANIZATION ( #119, #142 ) ;
ENDSEC;
END-ISO-10303-21;
