ISO-10303-21;
HEADER;
FILE_DESCRIPTION (( 'STEP AP203' ),
    '1' );
FILE_NAME ('Web Model 12449_12449.step',
    '2019-11-01T14:38:05',
    ( '' ),
    ( '' ),
    'SwSTEP 2.0',
    'SolidWorks 2018',
    '' );
FILE_SCHEMA (( 'CONFIG_CONTROL_DESIGN' ));
ENDSEC;

DATA;
#1 = DIRECTION ( 'NONE',  ( 0.0000000000000000000, 0.0000000000000000000, -1.000000000000000000 ) ) ;
#2 = MANIFOLD_SOLID_BREP ( 'Boss-Extrude1', #100 ) ;
#3 = AXIS2_PLACEMENT_3D ( 'NONE', #32, #29, #1 ) ;
#4 = LOCAL_TIME ( 10, 38, 5.000000000000000000, #76 ) ;
#5 = CARTESIAN_POINT ( 'NONE',  ( 0.8000000000000000444, 3.061616997868382648E-16, -2.499999999999999556 ) ) ;
#6 = EDGE_LOOP ( 'NONE', ( #52, #49, #12, #140 ) ) ;
#7 = PERSON_AND_ORGANIZATION ( #94, #104 ) ;
#8 = APPROVAL_STATUS ( 'not_yet_approved' ) ;
#9 = CALENDAR_DATE ( 2019, 1, 11 ) ;
#10 = EDGE_LOOP ( 'NONE', ( #147, #111 ) ) ;
#11 = CALENDAR_DATE ( 2019, 1, 11 ) ;
#12 = ORIENTED_EDGE ( 'NONE', *, *, #149, .T. ) ;
#13 = APPROVAL_PERSON_ORGANIZATION ( #50, #66, #75 ) ;
#14 = APPROVAL ( #8, 'UNSPECIFIED' ) ;
#15 = CARTESIAN_POINT ( 'NONE',  ( 0.8000000000000000444, 0.0000000000000000000, 2.499999999999999556 ) ) ;
#16 = ORIENTED_EDGE ( 'NONE', *, *, #72, .T. ) ;
#17 = CARTESIAN_POINT ( 'NONE',  ( -0.8000000000000000444, 0.0000000000000000000, 0.0000000000000000000 ) ) ;
#18 = DIRECTION ( 'NONE',  ( 0.0000000000000000000, 0.0000000000000000000, -1.000000000000000000 ) ) ;
#19 = DATE_AND_TIME ( #9, #4 ) ;
#20 = CARTESIAN_POINT ( 'NONE',  ( 0.8000000000000000444, 0.0000000000000000000, 0.0000000000000000000 ) ) ;
#21 = DIRECTION ( 'NONE',  ( 0.0000000000000000000, 0.0000000000000000000, -1.000000000000000000 ) ) ;
#22 = FACE_OUTER_BOUND ( 'NONE', #91, .T. ) ;
#23 = PERSON_AND_ORGANIZATION_ROLE ( 'classification_officer' ) ;
#24 =( NAMED_UNIT ( * ) SI_UNIT ( $, .STERADIAN. ) SOLID_ANGLE_UNIT ( ) );
#25 = SECURITY_CLASSIFICATION ( '', '', #88 ) ;
#26 = DATE_AND_TIME ( #59, #139 ) ;
#27 = FACE_OUTER_BOUND ( 'NONE', #10, .T. ) ;
#28 = ADVANCED_FACE ( 'NONE', ( #43 ), #145, .T. ) ;
#29 = DIRECTION ( 'NONE',  ( 1.000000000000000000, 0.0000000000000000000, 0.0000000000000000000 ) ) ;
#30 = DIRECTION ( 'NONE',  ( -1.000000000000000000, -0.0000000000000000000, -0.0000000000000000000 ) ) ;
#31 = CARTESIAN_POINT ( 'NONE',  ( 0.8000000000000000444, 0.0000000000000000000, 0.0000000000000000000 ) ) ;
#32 = CARTESIAN_POINT ( 'NONE',  ( -0.8000000000000000444, 0.0000000000000000000, 0.0000000000000000000 ) ) ;
#33 = MECHANICAL_CONTEXT ( 'NONE', #137, 'mechanical' ) ;
#34 = DIRECTION ( 'NONE',  ( 1.000000000000000000, 0.0000000000000000000, 0.0000000000000000000 ) ) ;
#35 = CC_DESIGN_SECURITY_CLASSIFICATION ( #25, ( #93 ) ) ;
#36 = DATE_AND_TIME ( #115, #53 ) ;
#37 = UNCERTAINTY_MEASURE_WITH_UNIT (LENGTH_MEASURE( 1.000000000000000082E-05 ), #135, 'distance_accuracy_value', 'NONE');
#38 = LINE ( 'NONE', #144, #113 ) ;
#39 = ADVANCED_FACE ( 'NONE', ( #152 ), #131, .T. ) ;
#40 = LOCAL_TIME ( 10, 38, 5.000000000000000000, #160 ) ;
#41 = CC_DESIGN_APPROVAL ( #77, ( #171 ) ) ;
#42 = PLANE ( 'NONE',  #96 ) ;
#43 = FACE_OUTER_BOUND ( 'NONE', #6, .T. ) ;
#44 = APPROVAL_ROLE ( '' ) ;
#45 = COORDINATED_UNIVERSAL_TIME_OFFSET ( 5, 0, .BEHIND. ) ;
#46 =( NAMED_UNIT ( * ) PLANE_ANGLE_UNIT ( ) SI_UNIT ( $, .RADIAN. ) );
#47 = ADVANCED_FACE ( 'NONE', ( #27 ), #42, .F. ) ;
#48 = AXIS2_PLACEMENT_3D ( 'NONE', #20, #173, #114 ) ;
#49 = ORIENTED_EDGE ( 'NONE', *, *, #109, .F. ) ;
#50 = PERSON_AND_ORGANIZATION ( #94, #104 ) ;
#51 = AXIS2_PLACEMENT_3D ( 'NONE', #31, #158, #128 ) ;
#52 = ORIENTED_EDGE ( 'NONE', *, *, #132, .F. ) ;
#53 = LOCAL_TIME ( 10, 38, 5.000000000000000000, #90 ) ;
#54 = LINE ( 'NONE', #86, #153 ) ;
#55 = CC_DESIGN_APPROVAL ( #14, ( #25 ) ) ;
#56 = CARTESIAN_POINT ( 'NONE',  ( -0.8000000000000000444, 0.0000000000000000000, 0.0000000000000000000 ) ) ;
#57 = PRODUCT_DEFINITION_SHAPE ( 'NONE', 'NONE',  #171 ) ;
#58 = CARTESIAN_POINT ( 'NONE',  ( 0.8000000000000000444, 0.0000000000000000000, 0.0000000000000000000 ) ) ;
#59 = CALENDAR_DATE ( 2019, 1, 11 ) ;
#60 = VERTEX_POINT ( 'NONE', #15 ) ;
#61 = CARTESIAN_POINT ( 'NONE',  ( 0.8000000000000000444, 0.0000000000000000000, 0.0000000000000000000 ) ) ;
#62 = AXIS2_PLACEMENT_3D ( 'NONE', #61, #172, #21 ) ;
#63 = DIRECTION ( 'NONE',  ( 0.0000000000000000000, 0.0000000000000000000, 1.000000000000000000 ) ) ;
#64 = DATE_TIME_ROLE ( 'creation_date' ) ;
#65 = AXIS2_PLACEMENT_3D ( 'NONE', #97, #112, #18 ) ;
#66 = APPROVAL ( #136, 'UNSPECIFIED' ) ;
#67 = PERSON_AND_ORGANIZATION ( #94, #104 ) ;
#68 = DATE_AND_TIME ( #143, #80 ) ;
#69 = CC_DESIGN_PERSON_AND_ORGANIZATION_ASSIGNMENT ( #107, #159, ( #133 ) ) ;
#70 = CARTESIAN_POINT ( 'NONE',  ( -0.8000000000000000444, 3.061616997868382648E-16, -2.499999999999999556 ) ) ;
#71 = CC_DESIGN_APPROVAL ( #66, ( #93 ) ) ;
#72 = EDGE_CURVE ( 'NONE', #102, #74, #110, .T. ) ;
#73 = SHAPE_DEFINITION_REPRESENTATION ( #57, #120 ) ;
#74 = VERTEX_POINT ( 'NONE', #99 ) ;
#75 = APPROVAL_ROLE ( '' ) ;
#76 = COORDINATED_UNIVERSAL_TIME_OFFSET ( 5, 0, .BEHIND. ) ;
#77 = APPROVAL ( #174, 'UNSPECIFIED' ) ;
#78 = ORIENTED_EDGE ( 'NONE', *, *, #149, .F. ) ;
#79 = EDGE_CURVE ( 'NONE', #105, #60, #130, .T. ) ;
#80 = LOCAL_TIME ( 10, 38, 5.000000000000000000, #45 ) ;
#81 =( GEOMETRIC_REPRESENTATION_CONTEXT ( 3 ) GLOBAL_UNCERTAINTY_ASSIGNED_CONTEXT ( ( #37 ) ) GLOBAL_UNIT_ASSIGNED_CONTEXT ( ( #135, #46, #24 ) ) REPRESENTATION_CONTEXT ( 'NONE', 'WORKASPACE' ) );
#82 = CC_DESIGN_DATE_AND_TIME_ASSIGNMENT ( #36, #64, ( #171 ) ) ;
#83 = PERSON_AND_ORGANIZATION ( #94, #104 ) ;
#84 = DIRECTION ( 'NONE',  ( 0.0000000000000000000, 0.0000000000000000000, -1.000000000000000000 ) ) ;
#85 = CYLINDRICAL_SURFACE ( 'NONE', #51, 2.499999999999999556 ) ;
#86 = CARTESIAN_POINT ( 'NONE',  ( 0.8000000000000000444, 3.061616997868382648E-16, -2.499999999999999556 ) ) ;
#87 = PERSON_AND_ORGANIZATION_ROLE ( 'creator' ) ;
#88 = SECURITY_CLASSIFICATION_LEVEL ( 'unclassified' ) ;
#89 = EDGE_LOOP ( 'NONE', ( #163, #118 ) ) ;
#90 = COORDINATED_UNIVERSAL_TIME_OFFSET ( 5, 0, .BEHIND. ) ;
#91 = EDGE_LOOP ( 'NONE', ( #154, #150, #16, #78 ) ) ;
#92 = DESIGN_CONTEXT ( 'detailed design', #117, 'design' ) ;
#93 = PRODUCT_DEFINITION_FORMATION_WITH_SPECIFIED_SOURCE ( 'ANY', '', #133, .NOT_KNOWN. ) ;
#94 = PERSON ( 'UNSPECIFIED', 'UNSPECIFIED', 'UNSPECIFIED', ('UNSPECIFIED'), ('UNSPECIFIED'), ('UNSPECIFIED') ) ;
#95 = AXIS2_PLACEMENT_3D ( 'NONE', #17, #155, #156 ) ;
#96 = AXIS2_PLACEMENT_3D ( 'NONE', #56, #146, #84 ) ;
#97 = CARTESIAN_POINT ( 'NONE',  ( 0.8000000000000000444, 0.0000000000000000000, 0.0000000000000000000 ) ) ;
#98 = CC_DESIGN_PERSON_AND_ORGANIZATION_ASSIGNMENT ( #7, #23, ( #25 ) ) ;
#99 = CARTESIAN_POINT ( 'NONE',  ( -0.8000000000000000444, 0.0000000000000000000, 2.499999999999999556 ) ) ;
#100 = CLOSED_SHELL ( 'NONE', ( #170, #28, #39, #47 ) ) ;
#101 = DIRECTION ( 'NONE',  ( -1.000000000000000000, -0.0000000000000000000, -0.0000000000000000000 ) ) ;
#102 = VERTEX_POINT ( 'NONE', #70 ) ;
#103 = APPROVAL_PERSON_ORGANIZATION ( #67, #77, #122 ) ;
#104 = ORGANIZATION ( 'UNSPECIFIED', 'UNSPECIFIED', '' ) ;
#105 = VERTEX_POINT ( 'NONE', #5 ) ;
#106 = AXIS2_PLACEMENT_3D ( 'NONE', #58, #126, #116 ) ;
#107 = PERSON_AND_ORGANIZATION ( #94, #104 ) ;
#108 = CC_DESIGN_DATE_AND_TIME_ASSIGNMENT ( #68, #162, ( #25 ) ) ;
#109 = EDGE_CURVE ( 'NONE', #60, #105, #169, .T. ) ;
#110 = CIRCLE ( 'NONE', #95, 2.499999999999999556 ) ;
#111 = ORIENTED_EDGE ( 'NONE', *, *, #72, .F. ) ;
#112 = DIRECTION ( 'NONE',  ( 1.000000000000000000, 0.0000000000000000000, 0.0000000000000000000 ) ) ;
#113 = VECTOR ( 'NONE', #101, 1000.000000000000000 ) ;
#114 = DIRECTION ( 'NONE',  ( 0.0000000000000000000, 0.0000000000000000000, -1.000000000000000000 ) ) ;
#115 = CALENDAR_DATE ( 2019, 1, 11 ) ;
#116 = DIRECTION ( 'NONE',  ( 0.0000000000000000000, 0.0000000000000000000, 1.000000000000000000 ) ) ;
#117 = APPLICATION_CONTEXT ( 'configuration controlled 3d designs of mechanical parts and assemblies' ) ;
#118 = ORIENTED_EDGE ( 'NONE', *, *, #79, .T. ) ;
#119 = PERSON_AND_ORGANIZATION_ROLE ( 'design_supplier' ) ;
#120 = ADVANCED_BREP_SHAPE_REPRESENTATION ( 'Web Model 12449_12449', ( #2, #142 ), #81 ) ;
#121 = PERSON_AND_ORGANIZATION ( #94, #104 ) ;
#122 = APPROVAL_ROLE ( '' ) ;
#123 = CIRCLE ( 'NONE', #3, 2.499999999999999556 ) ;
#124 = EDGE_CURVE ( 'NONE', #74, #102, #123, .T. ) ;
#125 = APPROVAL_DATE_TIME ( #151, #66 ) ;
#126 = DIRECTION ( 'NONE',  ( -1.000000000000000000, -0.0000000000000000000, -0.0000000000000000000 ) ) ;
#127 = PRODUCT_RELATED_PRODUCT_CATEGORY ( 'detail', '', ( #133 ) ) ;
#128 = DIRECTION ( 'NONE',  ( 0.0000000000000000000, 0.0000000000000000000, 1.000000000000000000 ) ) ;
#129 = PERSON_AND_ORGANIZATION ( #94, #104 ) ;
#130 = CIRCLE ( 'NONE', #48, 2.499999999999999556 ) ;
#131 = PLANE ( 'NONE',  #65 ) ;
#132 = EDGE_CURVE ( 'NONE', #105, #102, #54, .T. ) ;
#133 = PRODUCT ( 'Web Model 12449_12449', 'Web Model 12449_12449', '', ( #33 ) ) ;
#134 = CC_DESIGN_PERSON_AND_ORGANIZATION_ASSIGNMENT ( #83, #87, ( #93 ) ) ;
#135 =( LENGTH_UNIT ( ) NAMED_UNIT ( * ) SI_UNIT ( .MILLI., .METRE. ) );
#136 = APPROVAL_STATUS ( 'not_yet_approved' ) ;
#137 = APPLICATION_CONTEXT ( 'configuration controlled 3d designs of mechanical parts and assemblies' ) ;
#138 = APPROVAL_PERSON_ORGANIZATION ( #141, #14, #44 ) ;
#139 = LOCAL_TIME ( 10, 38, 5.000000000000000000, #166 ) ;
#140 = ORIENTED_EDGE ( 'NONE', *, *, #124, .T. ) ;
#141 = PERSON_AND_ORGANIZATION ( #94, #104 ) ;
#142 = AXIS2_PLACEMENT_3D ( 'NONE', #148, #63, #34 ) ;
#143 = CALENDAR_DATE ( 2019, 1, 11 ) ;
#144 = CARTESIAN_POINT ( 'NONE',  ( 0.8000000000000000444, 0.0000000000000000000, 2.499999999999999556 ) ) ;
#145 = CYLINDRICAL_SURFACE ( 'NONE', #106, 2.499999999999999556 ) ;
#146 = DIRECTION ( 'NONE',  ( 1.000000000000000000, 0.0000000000000000000, 0.0000000000000000000 ) ) ;
#147 = ORIENTED_EDGE ( 'NONE', *, *, #124, .F. ) ;
#148 = CARTESIAN_POINT ( 'NONE',  ( 0.0000000000000000000, 0.0000000000000000000, 0.0000000000000000000 ) ) ;
#149 = EDGE_CURVE ( 'NONE', #60, #74, #38, .T. ) ;
#150 = ORIENTED_EDGE ( 'NONE', *, *, #132, .T. ) ;
#151 = DATE_AND_TIME ( #11, #40 ) ;
#152 = FACE_OUTER_BOUND ( 'NONE', #89, .T. ) ;
#153 = VECTOR ( 'NONE', #30, 1000.000000000000000 ) ;
#154 = ORIENTED_EDGE ( 'NONE', *, *, #79, .F. ) ;
#155 = DIRECTION ( 'NONE',  ( 1.000000000000000000, 0.0000000000000000000, 0.0000000000000000000 ) ) ;
#156 = DIRECTION ( 'NONE',  ( 0.0000000000000000000, 0.0000000000000000000, -1.000000000000000000 ) ) ;
#157 = CC_DESIGN_PERSON_AND_ORGANIZATION_ASSIGNMENT ( #129, #175, ( #171 ) ) ;
#158 = DIRECTION ( 'NONE',  ( -1.000000000000000000, -0.0000000000000000000, -0.0000000000000000000 ) ) ;
#159 = PERSON_AND_ORGANIZATION_ROLE ( 'design_owner' ) ;
#160 = COORDINATED_UNIVERSAL_TIME_OFFSET ( 5, 0, .BEHIND. ) ;
#161 = APPLICATION_PROTOCOL_DEFINITION ( 'international standard', 'config_control_design', 1994, #117 ) ;
#162 = DATE_TIME_ROLE ( 'classification_date' ) ;
#163 = ORIENTED_EDGE ( 'NONE', *, *, #109, .T. ) ;
#164 = APPLICATION_PROTOCOL_DEFINITION ( 'international standard', 'config_control_design', 1994, #137 ) ;
#165 = APPROVAL_DATE_TIME ( #19, #14 ) ;
#166 = COORDINATED_UNIVERSAL_TIME_OFFSET ( 5, 0, .BEHIND. ) ;
#167 = CC_DESIGN_PERSON_AND_ORGANIZATION_ASSIGNMENT ( #121, #119, ( #93 ) ) ;
#168 = APPROVAL_DATE_TIME ( #26, #77 ) ;
#169 = CIRCLE ( 'NONE', #62, 2.499999999999999556 ) ;
#170 = ADVANCED_FACE ( 'NONE', ( #22 ), #85, .T. ) ;
#171 = PRODUCT_DEFINITION ( 'UNKNOWN', '', #93, #92 ) ;
#172 = DIRECTION ( 'NONE',  ( 1.000000000000000000, 0.0000000000000000000, 0.0000000000000000000 ) ) ;
#173 = DIRECTION ( 'NONE',  ( 1.000000000000000000, 0.0000000000000000000, 0.0000000000000000000 ) ) ;
#174 = APPROVAL_STATUS ( 'not_yet_approved' ) ;
#175 = PERSON_AND_ORGANIZATION_ROLE ( 'creator' ) ;
ENDSEC;
END-ISO-10303-21;
