ISO-10303-21;
HEADER;
FILE_DESCRIPTION (( 'STEP AP203' ),
    '1' );
FILE_NAME ('47193_84462.step',
    '2018-01-22T13:13:14',
    ( '' ),
    ( '' ),
    'SwSTEP 2.0',
    'SolidWorks 2016',
    '' );
FILE_SCHEMA (( 'CONFIG_CONTROL_DESIGN' ));
ENDSEC;

DATA;
#1 = VERTEX_POINT ( 'NONE', #165 ) ;
#2 = DATE_TIME_ROLE ( 'creation_date' ) ;
#3 = CALENDAR_DATE ( 2018, 22, 1 ) ;
#4 = DIRECTION ( 'NONE',  ( 1.000000000000000000, 0.0000000000000000000, 0.0000000000000000000 ) ) ;
#5 = FACE_OUTER_BOUND ( 'NONE', #112, .T. ) ;
#6 = LOCAL_TIME ( 8, 13, 14.00000000000000000, #145 ) ;
#7 = VERTEX_POINT ( 'NONE', #49 ) ;
#8 = EDGE_LOOP ( 'NONE', ( #99, #16 ) ) ;
#9 = APPROVAL_ROLE ( '' ) ;
#10 = DIRECTION ( 'NONE',  ( 0.0000000000000000000, 0.0000000000000000000, 1.000000000000000000 ) ) ;
#11 = DIRECTION ( 'NONE',  ( 0.0000000000000000000, 0.0000000000000000000, 1.000000000000000000 ) ) ;
#12 = AXIS2_PLACEMENT_3D ( 'NONE', #93, #11, #75 ) ;
#13 = CARTESIAN_POINT ( 'NONE',  ( 0.0000000000000000000, 0.0000000000000000000, -2.000000000000000000 ) ) ;
#14 = COORDINATED_UNIVERSAL_TIME_OFFSET ( 5, 0, .BEHIND. ) ;
#15 = MANIFOLD_SOLID_BREP ( 'Boss-Extrude1', #128 ) ;
#16 = ORIENTED_EDGE ( 'NONE', *, *, #50, .F. ) ;
#17 = AXIS2_PLACEMENT_3D ( 'NONE', #22, #166, #152 ) ;
#18 = APPLICATION_PROTOCOL_DEFINITION ( 'international standard', 'config_control_design', 1994, #134 ) ;
#19 =( NAMED_UNIT ( * ) PLANE_ANGLE_UNIT ( ) SI_UNIT ( $, .RADIAN. ) );
#20 = COORDINATED_UNIVERSAL_TIME_OFFSET ( 5, 0, .BEHIND. ) ;
#21 = CARTESIAN_POINT ( 'NONE',  ( -6.249999999999998200, 7.654042494670955600E-016, -2.000000000000000000 ) ) ;
#22 = CARTESIAN_POINT ( 'NONE',  ( 0.0000000000000000000, 0.0000000000000000000, -2.000000000000000000 ) ) ;
#23 = ORIENTED_EDGE ( 'NONE', *, *, #126, .T. ) ;
#24 = PERSON_AND_ORGANIZATION ( #144, #56 ) ;
#25 = CIRCLE ( 'NONE', #114, 6.249999999999998200 ) ;
#26 = ADVANCED_FACE ( 'NONE', ( #110 ), #85, .T. ) ;
#27 = CALENDAR_DATE ( 2018, 22, 1 ) ;
#28 = AXIS2_PLACEMENT_3D ( 'NONE', #118, #10, #106 ) ;
#29 = DATE_AND_TIME ( #3, #140 ) ;
#30 = VECTOR ( 'NONE', #91, 1000.000000000000000 ) ;
#31 = DESIGN_CONTEXT ( 'detailed design', #134, 'design' ) ;
#32 = VECTOR ( 'NONE', #107, 1000.000000000000000 ) ;
#33 = APPROVAL_ROLE ( '' ) ;
#34 = PERSON_AND_ORGANIZATION_ROLE ( 'design_owner' ) ;
#35 = CARTESIAN_POINT ( 'NONE',  ( 0.0000000000000000000, 0.0000000000000000000, 0.0000000000000000000 ) ) ;
#36 = AXIS2_PLACEMENT_3D ( 'NONE', #37, #47, #150 ) ;
#37 = CARTESIAN_POINT ( 'NONE',  ( 0.0000000000000000000, 0.0000000000000000000, -2.000000000000000000 ) ) ;
#38 = ORIENTED_EDGE ( 'NONE', *, *, #79, .F. ) ;
#39 = VERTEX_POINT ( 'NONE', #109 ) ;
#40 = CIRCLE ( 'NONE', #12, 6.249999999999998200 ) ;
#41 = DATE_TIME_ROLE ( 'classification_date' ) ;
#42 = PERSON_AND_ORGANIZATION ( #144, #56 ) ;
#43 = DIRECTION ( 'NONE',  ( 1.000000000000000000, 0.0000000000000000000, 0.0000000000000000000 ) ) ;
#44 = CYLINDRICAL_SURFACE ( 'NONE', #46, 6.249999999999998200 ) ;
#45 = DIRECTION ( 'NONE',  ( 1.000000000000000000, 0.0000000000000000000, 0.0000000000000000000 ) ) ;
#46 = AXIS2_PLACEMENT_3D ( 'NONE', #164, #77, #120 ) ;
#47 = DIRECTION ( 'NONE',  ( 0.0000000000000000000, 0.0000000000000000000, 1.000000000000000000 ) ) ;
#48 = CARTESIAN_POINT ( 'NONE',  ( 6.249999999999998200, 0.0000000000000000000, -2.000000000000000000 ) ) ;
#49 = CARTESIAN_POINT ( 'NONE',  ( -6.249999999999998200, 7.654042494670955600E-016, -2.000000000000000000 ) ) ;
#50 = EDGE_CURVE ( 'NONE', #7, #147, #171, .T. ) ;
#51 = ORIENTED_EDGE ( 'NONE', *, *, #50, .T. ) ;
#52 = DATE_AND_TIME ( #124, #6 ) ;
#53 = CALENDAR_DATE ( 2018, 22, 1 ) ;
#54 = SECURITY_CLASSIFICATION_LEVEL ( 'unclassified' ) ;
#55 = ORIENTED_EDGE ( 'NONE', *, *, #175, .T. ) ;
#56 = ORGANIZATION ( 'UNSPECIFIED', 'UNSPECIFIED', '' ) ;
#57 = APPLICATION_CONTEXT ( 'configuration controlled 3d designs of mechanical parts and assemblies' ) ;
#58 = CARTESIAN_POINT ( 'NONE',  ( 0.0000000000000000000, 0.0000000000000000000, -2.000000000000000000 ) ) ;
#59 = CC_DESIGN_DATE_AND_TIME_ASSIGNMENT ( #29, #41, ( #154 ) ) ;
#60 = PERSON_AND_ORGANIZATION ( #144, #56 ) ;
#61 = CARTESIAN_POINT ( 'NONE',  ( 6.249999999999998200, 0.0000000000000000000, -2.000000000000000000 ) ) ;
#62 = DIRECTION ( 'NONE',  ( 1.000000000000000000, 0.0000000000000000000, 0.0000000000000000000 ) ) ;
#63 = EDGE_LOOP ( 'NONE', ( #70, #23, #38, #162 ) ) ;
#64 = PERSON_AND_ORGANIZATION ( #144, #56 ) ;
#65 = CC_DESIGN_PERSON_AND_ORGANIZATION_ASSIGNMENT ( #42, #103, ( #100 ) ) ;
#66 = PERSON_AND_ORGANIZATION ( #144, #56 ) ;
#67 = LINE ( 'NONE', #21, #32 ) ;
#68 = APPROVAL ( #115, 'UNSPECIFIED' ) ;
#69 = CC_DESIGN_DATE_AND_TIME_ASSIGNMENT ( #80, #2, ( #100 ) ) ;
#70 = ORIENTED_EDGE ( 'NONE', *, *, #172, .T. ) ;
#71 = PERSON_AND_ORGANIZATION_ROLE ( 'creator' ) ;
#72 = APPLICATION_PROTOCOL_DEFINITION ( 'international standard', 'config_control_design', 1994, #57 ) ;
#73 = PRODUCT_RELATED_PRODUCT_CATEGORY ( 'detail', '', ( #158 ) ) ;
#74 = PRODUCT_DEFINITION_FORMATION_WITH_SPECIFIED_SOURCE ( 'ANY', '', #158, .NOT_KNOWN. ) ;
#75 = DIRECTION ( 'NONE',  ( 1.000000000000000000, 0.0000000000000000000, 0.0000000000000000000 ) ) ;
#76 = CARTESIAN_POINT ( 'NONE',  ( 0.0000000000000000000, 0.0000000000000000000, 0.0000000000000000000 ) ) ;
#77 = DIRECTION ( 'NONE',  ( 0.0000000000000000000, 0.0000000000000000000, 1.000000000000000000 ) ) ;
#78 = APPROVAL_PERSON_ORGANIZATION ( #113, #95, #9 ) ;
#79 = EDGE_CURVE ( 'NONE', #1, #39, #173, .T. ) ;
#80 = DATE_AND_TIME ( #116, #157 ) ;
#81 = CC_DESIGN_APPROVAL ( #68, ( #154 ) ) ;
#82 = APPROVAL ( #87, 'UNSPECIFIED' ) ;
#83 = ADVANCED_FACE ( 'NONE', ( #125 ), #44, .T. ) ;
#84 = APPROVAL_DATE_TIME ( #153, #95 ) ;
#85 = CYLINDRICAL_SURFACE ( 'NONE', #17, 6.249999999999998200 ) ;
#86 = APPROVAL_DATE_TIME ( #52, #68 ) ;
#87 = APPROVAL_STATUS ( 'not_yet_approved' ) ;
#88 = AXIS2_PLACEMENT_3D ( 'NONE', #76, #151, #62 ) ;
#89 = ORIENTED_EDGE ( 'NONE', *, *, #111, .F. ) ;
#90 =( NAMED_UNIT ( * ) SI_UNIT ( $, .STERADIAN. ) SOLID_ANGLE_UNIT ( ) );
#91 = DIRECTION ( 'NONE',  ( 0.0000000000000000000, 0.0000000000000000000, 1.000000000000000000 ) ) ;
#92 = CC_DESIGN_SECURITY_CLASSIFICATION ( #154, ( #74 ) ) ;
#93 = CARTESIAN_POINT ( 'NONE',  ( 0.0000000000000000000, 0.0000000000000000000, 0.0000000000000000000 ) ) ;
#94 = APPROVAL_PERSON_ORGANIZATION ( #129, #82, #160 ) ;
#95 = APPROVAL ( #117, 'UNSPECIFIED' ) ;
#96 = LOCAL_TIME ( 8, 13, 14.00000000000000000, #169 ) ;
#97 = SHAPE_DEFINITION_REPRESENTATION ( #119, #131 ) ;
#98 = DATE_AND_TIME ( #53, #170 ) ;
#99 = ORIENTED_EDGE ( 'NONE', *, *, #172, .F. ) ;
#100 = PRODUCT_DEFINITION ( 'UNKNOWN', '', #74, #31 ) ;
#101 = COORDINATED_UNIVERSAL_TIME_OFFSET ( 5, 0, .BEHIND. ) ;
#102 = ORIENTED_EDGE ( 'NONE', *, *, #111, .T. ) ;
#103 = PERSON_AND_ORGANIZATION_ROLE ( 'creator' ) ;
#104 =( LENGTH_UNIT ( ) NAMED_UNIT ( * ) SI_UNIT ( .MILLI., .METRE. ) );
#105 = APPROVAL_PERSON_ORGANIZATION ( #66, #68, #33 ) ;
#106 = DIRECTION ( 'NONE',  ( 1.000000000000000000, 0.0000000000000000000, -0.0000000000000000000 ) ) ;
#107 = DIRECTION ( 'NONE',  ( 0.0000000000000000000, 0.0000000000000000000, 1.000000000000000000 ) ) ;
#108 = DIRECTION ( 'NONE',  ( 0.0000000000000000000, 0.0000000000000000000, 1.000000000000000000 ) ) ;
#109 = CARTESIAN_POINT ( 'NONE',  ( -6.249999999999998200, 7.654042494670955600E-016, 0.0000000000000000000 ) ) ;
#110 = FACE_OUTER_BOUND ( 'NONE', #63, .T. ) ;
#111 = EDGE_CURVE ( 'NONE', #39, #1, #40, .T. ) ;
#112 = EDGE_LOOP ( 'NONE', ( #122, #102 ) ) ;
#113 = PERSON_AND_ORGANIZATION ( #144, #56 ) ;
#114 = AXIS2_PLACEMENT_3D ( 'NONE', #58, #135, #45 ) ;
#115 = APPROVAL_STATUS ( 'not_yet_approved' ) ;
#116 = CALENDAR_DATE ( 2018, 22, 1 ) ;
#117 = APPROVAL_STATUS ( 'not_yet_approved' ) ;
#118 = CARTESIAN_POINT ( 'NONE',  ( 0.0000000000000000000, 0.0000000000000000000, 0.0000000000000000000 ) ) ;
#119 = PRODUCT_DEFINITION_SHAPE ( 'NONE', 'NONE',  #100 ) ;
#120 = DIRECTION ( 'NONE',  ( 1.000000000000000000, 0.0000000000000000000, 0.0000000000000000000 ) ) ;
#121 = AXIS2_PLACEMENT_3D ( 'NONE', #35, #161, #43 ) ;
#122 = ORIENTED_EDGE ( 'NONE', *, *, #79, .T. ) ;
#123 = CC_DESIGN_APPROVAL ( #95, ( #100 ) ) ;
#124 = CALENDAR_DATE ( 2018, 22, 1 ) ;
#125 = FACE_OUTER_BOUND ( 'NONE', #143, .T. ) ;
#126 = EDGE_CURVE ( 'NONE', #7, #39, #67, .T. ) ;
#127 = ORIENTED_EDGE ( 'NONE', *, *, #126, .F. ) ;
#128 = CLOSED_SHELL ( 'NONE', ( #26, #83, #142, #156 ) ) ;
#129 = PERSON_AND_ORGANIZATION ( #144, #56 ) ;
#130 = CC_DESIGN_APPROVAL ( #82, ( #74 ) ) ;
#131 = ADVANCED_BREP_SHAPE_REPRESENTATION ( '47193_84462', ( #15, #121 ), #141 ) ;
#132 = PERSON_AND_ORGANIZATION_ROLE ( 'classification_officer' ) ;
#133 = LINE ( 'NONE', #61, #30 ) ;
#134 = APPLICATION_CONTEXT ( 'configuration controlled 3d designs of mechanical parts and assemblies' ) ;
#135 = DIRECTION ( 'NONE',  ( 0.0000000000000000000, 0.0000000000000000000, 1.000000000000000000 ) ) ;
#136 = CC_DESIGN_PERSON_AND_ORGANIZATION_ASSIGNMENT ( #60, #132, ( #154 ) ) ;
#137 = PLANE ( 'NONE',  #28 ) ;
#138 = APPROVAL_DATE_TIME ( #98, #82 ) ;
#139 = FACE_OUTER_BOUND ( 'NONE', #8, .T. ) ;
#140 = LOCAL_TIME ( 8, 13, 14.00000000000000000, #101 ) ;
#141 =( GEOMETRIC_REPRESENTATION_CONTEXT ( 3 ) GLOBAL_UNCERTAINTY_ASSIGNED_CONTEXT ( ( #168 ) ) GLOBAL_UNIT_ASSIGNED_CONTEXT ( ( #104, #19, #90 ) ) REPRESENTATION_CONTEXT ( 'NONE', 'WORKASPACE' ) );
#142 = ADVANCED_FACE ( 'NONE', ( #139 ), #163, .F. ) ;
#143 = EDGE_LOOP ( 'NONE', ( #127, #51, #55, #89 ) ) ;
#144 = PERSON ( 'UNSPECIFIED', 'UNSPECIFIED', 'UNSPECIFIED', ('UNSPECIFIED'), ('UNSPECIFIED'), ('UNSPECIFIED') ) ;
#145 = COORDINATED_UNIVERSAL_TIME_OFFSET ( 5, 0, .BEHIND. ) ;
#146 = CC_DESIGN_PERSON_AND_ORGANIZATION_ASSIGNMENT ( #174, #71, ( #74 ) ) ;
#147 = VERTEX_POINT ( 'NONE', #48 ) ;
#148 = PERSON_AND_ORGANIZATION_ROLE ( 'design_supplier' ) ;
#149 = MECHANICAL_CONTEXT ( 'NONE', #57, 'mechanical' ) ;
#150 = DIRECTION ( 'NONE',  ( 1.000000000000000000, 0.0000000000000000000, -0.0000000000000000000 ) ) ;
#151 = DIRECTION ( 'NONE',  ( 0.0000000000000000000, 0.0000000000000000000, 1.000000000000000000 ) ) ;
#152 = DIRECTION ( 'NONE',  ( 1.000000000000000000, 0.0000000000000000000, 0.0000000000000000000 ) ) ;
#153 = DATE_AND_TIME ( #27, #96 ) ;
#154 = SECURITY_CLASSIFICATION ( '', '', #54 ) ;
#155 = CC_DESIGN_PERSON_AND_ORGANIZATION_ASSIGNMENT ( #64, #34, ( #158 ) ) ;
#156 = ADVANCED_FACE ( 'NONE', ( #5 ), #137, .T. ) ;
#157 = LOCAL_TIME ( 8, 13, 14.00000000000000000, #14 ) ;
#158 = PRODUCT ( '47193_84462', '47193_84462', '', ( #149 ) ) ;
#159 = AXIS2_PLACEMENT_3D ( 'NONE', #13, #108, #4 ) ;
#160 = APPROVAL_ROLE ( '' ) ;
#161 = DIRECTION ( 'NONE',  ( 0.0000000000000000000, 0.0000000000000000000, 1.000000000000000000 ) ) ;
#162 = ORIENTED_EDGE ( 'NONE', *, *, #175, .F. ) ;
#163 = PLANE ( 'NONE',  #36 ) ;
#164 = CARTESIAN_POINT ( 'NONE',  ( 0.0000000000000000000, 0.0000000000000000000, -2.000000000000000000 ) ) ;
#165 = CARTESIAN_POINT ( 'NONE',  ( 6.249999999999998200, 0.0000000000000000000, 0.0000000000000000000 ) ) ;
#166 = DIRECTION ( 'NONE',  ( 0.0000000000000000000, 0.0000000000000000000, 1.000000000000000000 ) ) ;
#167 = CC_DESIGN_PERSON_AND_ORGANIZATION_ASSIGNMENT ( #24, #148, ( #74 ) ) ;
#168 = UNCERTAINTY_MEASURE_WITH_UNIT (LENGTH_MEASURE( 1.000000000000000100E-005 ), #104, 'distance_accuracy_value', 'NONE');
#169 = COORDINATED_UNIVERSAL_TIME_OFFSET ( 5, 0, .BEHIND. ) ;
#170 = LOCAL_TIME ( 8, 13, 14.00000000000000000, #20 ) ;
#171 = CIRCLE ( 'NONE', #159, 6.249999999999998200 ) ;
#172 = EDGE_CURVE ( 'NONE', #147, #7, #25, .T. ) ;
#173 = CIRCLE ( 'NONE', #88, 6.249999999999998200 ) ;
#174 = PERSON_AND_ORGANIZATION ( #144, #56 ) ;
#175 = EDGE_CURVE ( 'NONE', #147, #1, #133, .T. ) ;
ENDSEC;
END-ISO-10303-21;
