ISO-10303-21;
HEADER;
FILE_DESCRIPTION (( 'STEP AP203' ),
    '1' );
FILE_NAME ('Web Model 34467_34471.step',
    '2017-06-14T17:56:54',
    ( '' ),
    ( '' ),
    'SwSTEP 2.0',
    'SolidWorks 2016',
    '' );
FILE_SCHEMA (( 'CONFIG_CONTROL_DESIGN' ));
ENDSEC;

DATA;
#1 = APPROVAL_ROLE ( '' ) ;
#2 = ORIENTED_EDGE ( 'NONE', *, *, #100, .T. ) ;
#3 = EDGE_LOOP ( 'NONE', ( #18, #89 ) ) ;
#4 = DATE_AND_TIME ( #36, #119 ) ;
#5 = APPROVAL_ROLE ( '' ) ;
#6 = PERSON_AND_ORGANIZATION ( #151, #86 ) ;
#7 =( LENGTH_UNIT ( ) NAMED_UNIT ( * ) SI_UNIT ( .MILLI., .METRE. ) );
#8 = AXIS2_PLACEMENT_3D ( 'NONE', #79, #10, #54 ) ;
#9 = PERSON_AND_ORGANIZATION ( #151, #86 ) ;
#10 = DIRECTION ( 'NONE',  ( -0.0000000000000000000, -0.0000000000000000000, -1.000000000000000000 ) ) ;
#11 = DESIGN_CONTEXT ( 'detailed design', #108, 'design' ) ;
#12 = PRODUCT ( 'Web Model 34467_34471', 'Web Model 34467_34471', '', ( #131 ) ) ;
#13 = EDGE_CURVE ( 'NONE', #52, #39, #164, .T. ) ;
#14 = COORDINATED_UNIVERSAL_TIME_OFFSET ( 5, 0, .BEHIND. ) ;
#15 = CC_DESIGN_APPROVAL ( #141, ( #76 ) ) ;
#16 = CLOSED_SHELL ( 'NONE', ( #81, #104, #142, #17 ) ) ;
#17 = ADVANCED_FACE ( 'NONE', ( #116 ), #27, .F. ) ;
#18 = ORIENTED_EDGE ( 'NONE', *, *, #100, .F. ) ;
#19 = MANIFOLD_SOLID_BREP ( 'Boss-Extrude1', #16 ) ;
#20 = DIRECTION ( 'NONE',  ( 0.0000000000000000000, 0.0000000000000000000, 1.000000000000000000 ) ) ;
#21 = PERSON_AND_ORGANIZATION_ROLE ( 'design_supplier' ) ;
#22 = APPROVAL_PERSON_ORGANIZATION ( #78, #141, #1 ) ;
#23 = VERTEX_POINT ( 'NONE', #125 ) ;
#24 = ORIENTED_EDGE ( 'NONE', *, *, #170, .T. ) ;
#25 = EDGE_CURVE ( 'NONE', #52, #23, #172, .T. ) ;
#26 = LOCAL_TIME ( 13, 56, 54.00000000000000000, #14 ) ;
#27 = PLANE ( 'NONE',  #66 ) ;
#28 = CYLINDRICAL_SURFACE ( 'NONE', #8, 6.250000000000000000 ) ;
#29 = ORIENTED_EDGE ( 'NONE', *, *, #93, .T. ) ;
#30 = DIRECTION ( 'NONE',  ( 0.0000000000000000000, 0.0000000000000000000, 1.000000000000000000 ) ) ;
#31 = PERSON_AND_ORGANIZATION ( #151, #86 ) ;
#32 = PERSON_AND_ORGANIZATION ( #151, #86 ) ;
#33 = AXIS2_PLACEMENT_3D ( 'NONE', #74, #30, #73 ) ;
#34 = APPLICATION_PROTOCOL_DEFINITION ( 'international standard', 'config_control_design', 1994, #115 ) ;
#35 = ORIENTED_EDGE ( 'NONE', *, *, #25, .F. ) ;
#36 = CALENDAR_DATE ( 2017, 14, 6 ) ;
#37 = PERSON_AND_ORGANIZATION_ROLE ( 'creator' ) ;
#38 = CC_DESIGN_DATE_AND_TIME_ASSIGNMENT ( #4, #58, ( #146 ) ) ;
#39 = VERTEX_POINT ( 'NONE', #68 ) ;
#40 = ORIENTED_EDGE ( 'NONE', *, *, #13, .F. ) ;
#41 = DIRECTION ( 'NONE',  ( 0.0000000000000000000, 0.0000000000000000000, 1.000000000000000000 ) ) ;
#42 = DIRECTION ( 'NONE',  ( -0.0000000000000000000, -0.0000000000000000000, -1.000000000000000000 ) ) ;
#43 = CIRCLE ( 'NONE', #145, 6.250000000000000000 ) ;
#44 = APPROVAL_STATUS ( 'not_yet_approved' ) ;
#45 = EDGE_LOOP ( 'NONE', ( #69, #24, #56, #40 ) ) ;
#46 = CARTESIAN_POINT ( 'NONE',  ( -6.250000000000000000, 0.0000000000000000000, 0.6250000000000000000 ) ) ;
#47 = FACE_OUTER_BOUND ( 'NONE', #165, .T. ) ;
#48 = LINE ( 'NONE', #97, #138 ) ;
#49 = CARTESIAN_POINT ( 'NONE',  ( 0.0000000000000000000, 0.0000000000000000000, 0.0000000000000000000 ) ) ;
#50 = ORIENTED_EDGE ( 'NONE', *, *, #170, .F. ) ;
#51 = AXIS2_PLACEMENT_3D ( 'NONE', #95, #41, #120 ) ;
#52 = VERTEX_POINT ( 'NONE', #46 ) ;
#53 = ORIENTED_EDGE ( 'NONE', *, *, #13, .T. ) ;
#54 = DIRECTION ( 'NONE',  ( -1.000000000000000000, 0.0000000000000000000, 0.0000000000000000000 ) ) ;
#55 = CIRCLE ( 'NONE', #75, 6.250000000000000000 ) ;
#56 = ORIENTED_EDGE ( 'NONE', *, *, #121, .T. ) ;
#57 = FACE_OUTER_BOUND ( 'NONE', #45, .T. ) ;
#58 = DATE_TIME_ROLE ( 'classification_date' ) ;
#59 = AXIS2_PLACEMENT_3D ( 'NONE', #118, #20, #71 ) ;
#60 = ORIENTED_EDGE ( 'NONE', *, *, #25, .T. ) ;
#61 = PRODUCT_DEFINITION ( 'UNKNOWN', '', #76, #11 ) ;
#62 = VERTEX_POINT ( 'NONE', #109 ) ;
#63 = DIRECTION ( 'NONE',  ( 0.0000000000000000000, 0.0000000000000000000, 1.000000000000000000 ) ) ;
#64 = EDGE_LOOP ( 'NONE', ( #60, #29 ) ) ;
#65 = COORDINATED_UNIVERSAL_TIME_OFFSET ( 5, 0, .BEHIND. ) ;
#66 = AXIS2_PLACEMENT_3D ( 'NONE', #117, #63, #113 ) ;
#67 = CC_DESIGN_DATE_AND_TIME_ASSIGNMENT ( #88, #133, ( #61 ) ) ;
#68 = CARTESIAN_POINT ( 'NONE',  ( -6.250000000000000000, 0.0000000000000000000, -0.6250000000000000000 ) ) ;
#69 = ORIENTED_EDGE ( 'NONE', *, *, #93, .F. ) ;
#70 = PERSON_AND_ORGANIZATION ( #151, #86 ) ;
#71 = DIRECTION ( 'NONE',  ( 1.000000000000000000, 0.0000000000000000000, 0.0000000000000000000 ) ) ;
#72 = PRODUCT_DEFINITION_SHAPE ( 'NONE', 'NONE',  #61 ) ;
#73 = DIRECTION ( 'NONE',  ( 1.000000000000000000, 0.0000000000000000000, 0.0000000000000000000 ) ) ;
#74 = CARTESIAN_POINT ( 'NONE',  ( 0.0000000000000000000, 0.0000000000000000000, -0.6250000000000000000 ) ) ;
#75 = AXIS2_PLACEMENT_3D ( 'NONE', #157, #135, #107 ) ;
#76 = PRODUCT_DEFINITION_FORMATION_WITH_SPECIFIED_SOURCE ( 'ANY', '', #12, .NOT_KNOWN. ) ;
#77 = PERSON_AND_ORGANIZATION_ROLE ( 'design_owner' ) ;
#78 = PERSON_AND_ORGANIZATION ( #151, #86 ) ;
#79 = CARTESIAN_POINT ( 'NONE',  ( 0.0000000000000000000, 0.0000000000000000000, 0.6250000000000000000 ) ) ;
#80 = FACE_OUTER_BOUND ( 'NONE', #64, .T. ) ;
#81 = ADVANCED_FACE ( 'NONE', ( #57 ), #28, .T. ) ;
#82 = AXIS2_PLACEMENT_3D ( 'NONE', #49, #144, #139 ) ;
#83 = APPLICATION_PROTOCOL_DEFINITION ( 'international standard', 'config_control_design', 1994, #108 ) ;
#84 = DIRECTION ( 'NONE',  ( -1.000000000000000000, 0.0000000000000000000, 0.0000000000000000000 ) ) ;
#85 = LOCAL_TIME ( 13, 56, 54.00000000000000000, #162 ) ;
#86 = ORGANIZATION ( 'UNSPECIFIED', 'UNSPECIFIED', '' ) ;
#87 = CC_DESIGN_PERSON_AND_ORGANIZATION_ASSIGNMENT ( #129, #167, ( #146 ) ) ;
#88 = DATE_AND_TIME ( #166, #26 ) ;
#89 = ORIENTED_EDGE ( 'NONE', *, *, #121, .F. ) ;
#90 = APPROVAL_DATE_TIME ( #99, #141 ) ;
#91 = LOCAL_TIME ( 13, 56, 54.00000000000000000, #96 ) ;
#92 = DIRECTION ( 'NONE',  ( 1.000000000000000000, 0.0000000000000000000, 0.0000000000000000000 ) ) ;
#93 = EDGE_CURVE ( 'NONE', #23, #52, #43, .T. ) ;
#94 = CC_DESIGN_APPROVAL ( #132, ( #146 ) ) ;
#95 = CARTESIAN_POINT ( 'NONE',  ( 0.0000000000000000000, 0.0000000000000000000, 0.6250000000000000000 ) ) ;
#96 = COORDINATED_UNIVERSAL_TIME_OFFSET ( 5, 0, .BEHIND. ) ;
#97 = CARTESIAN_POINT ( 'NONE',  ( 6.250000000000000000, 7.654042494670957600E-016, 0.6250000000000000000 ) ) ;
#98 = APPROVAL_PERSON_ORGANIZATION ( #127, #175, #143 ) ;
#99 = DATE_AND_TIME ( #153, #114 ) ;
#100 = EDGE_CURVE ( 'NONE', #39, #62, #55, .T. ) ;
#101 = DIRECTION ( 'NONE',  ( -0.0000000000000000000, -0.0000000000000000000, -1.000000000000000000 ) ) ;
#102 = CC_DESIGN_PERSON_AND_ORGANIZATION_ASSIGNMENT ( #9, #37, ( #76 ) ) ;
#103 =( NAMED_UNIT ( * ) PLANE_ANGLE_UNIT ( ) SI_UNIT ( $, .RADIAN. ) );
#104 = ADVANCED_FACE ( 'NONE', ( #47 ), #106, .T. ) ;
#105 = DIRECTION ( 'NONE',  ( -0.0000000000000000000, -0.0000000000000000000, -1.000000000000000000 ) ) ;
#106 = CYLINDRICAL_SURFACE ( 'NONE', #174, 6.250000000000000000 ) ;
#107 = DIRECTION ( 'NONE',  ( 1.000000000000000000, 0.0000000000000000000, 0.0000000000000000000 ) ) ;
#108 = APPLICATION_CONTEXT ( 'configuration controlled 3d designs of mechanical parts and assemblies' ) ;
#109 = CARTESIAN_POINT ( 'NONE',  ( 6.250000000000000000, 7.654042494670957600E-016, -0.6250000000000000000 ) ) ;
#110 = CC_DESIGN_PERSON_AND_ORGANIZATION_ASSIGNMENT ( #32, #21, ( #76 ) ) ;
#111 = SHAPE_DEFINITION_REPRESENTATION ( #72, #160 ) ;
#112 = UNCERTAINTY_MEASURE_WITH_UNIT (LENGTH_MEASURE( 1.000000000000000100E-005 ), #7, 'distance_accuracy_value', 'NONE');
#113 = DIRECTION ( 'NONE',  ( 1.000000000000000000, 0.0000000000000000000, -0.0000000000000000000 ) ) ;
#114 = LOCAL_TIME ( 13, 56, 54.00000000000000000, #123 ) ;
#115 = APPLICATION_CONTEXT ( 'configuration controlled 3d designs of mechanical parts and assemblies' ) ;
#116 = FACE_OUTER_BOUND ( 'NONE', #3, .T. ) ;
#117 = CARTESIAN_POINT ( 'NONE',  ( 0.0000000000000000000, 0.0000000000000000000, -0.6250000000000000000 ) ) ;
#118 = CARTESIAN_POINT ( 'NONE',  ( 0.0000000000000000000, 0.0000000000000000000, 0.6250000000000000000 ) ) ;
#119 = LOCAL_TIME ( 13, 56, 54.00000000000000000, #65 ) ;
#120 = DIRECTION ( 'NONE',  ( 1.000000000000000000, 0.0000000000000000000, -0.0000000000000000000 ) ) ;
#121 = EDGE_CURVE ( 'NONE', #62, #39, #140, .T. ) ;
#122 = PERSON_AND_ORGANIZATION_ROLE ( 'creator' ) ;
#123 = COORDINATED_UNIVERSAL_TIME_OFFSET ( 5, 0, .BEHIND. ) ;
#124 = APPROVAL_STATUS ( 'not_yet_approved' ) ;
#125 = CARTESIAN_POINT ( 'NONE',  ( 6.250000000000000000, 7.654042494670957600E-016, 0.6250000000000000000 ) ) ;
#126 = APPROVAL_DATE_TIME ( #150, #132 ) ;
#127 = PERSON_AND_ORGANIZATION ( #151, #86 ) ;
#128 = CARTESIAN_POINT ( 'NONE',  ( -6.250000000000000000, 0.0000000000000000000, 0.6250000000000000000 ) ) ;
#129 = PERSON_AND_ORGANIZATION ( #151, #86 ) ;
#130 = CC_DESIGN_APPROVAL ( #175, ( #61 ) ) ;
#131 = MECHANICAL_CONTEXT ( 'NONE', #115, 'mechanical' ) ;
#132 = APPROVAL ( #124, 'UNSPECIFIED' ) ;
#133 = DATE_TIME_ROLE ( 'creation_date' ) ;
#134 = DIRECTION ( 'NONE',  ( 0.0000000000000000000, 0.0000000000000000000, 1.000000000000000000 ) ) ;
#135 = DIRECTION ( 'NONE',  ( 0.0000000000000000000, 0.0000000000000000000, 1.000000000000000000 ) ) ;
#136 = CALENDAR_DATE ( 2017, 14, 6 ) ;
#137 = APPROVAL_PERSON_ORGANIZATION ( #6, #132, #5 ) ;
#138 = VECTOR ( 'NONE', #105, 1000.000000000000000 ) ;
#139 = DIRECTION ( 'NONE',  ( 1.000000000000000000, 0.0000000000000000000, 0.0000000000000000000 ) ) ;
#140 = CIRCLE ( 'NONE', #33, 6.250000000000000000 ) ;
#141 = APPROVAL ( #158, 'UNSPECIFIED' ) ;
#142 = ADVANCED_FACE ( 'NONE', ( #80 ), #155, .T. ) ;
#143 = APPROVAL_ROLE ( '' ) ;
#144 = DIRECTION ( 'NONE',  ( 0.0000000000000000000, 0.0000000000000000000, 1.000000000000000000 ) ) ;
#145 = AXIS2_PLACEMENT_3D ( 'NONE', #168, #134, #92 ) ;
#146 = SECURITY_CLASSIFICATION ( '', '', #161 ) ;
#147 =( NAMED_UNIT ( * ) SI_UNIT ( $, .STERADIAN. ) SOLID_ANGLE_UNIT ( ) );
#148 = CC_DESIGN_PERSON_AND_ORGANIZATION_ASSIGNMENT ( #31, #122, ( #61 ) ) ;
#149 = DATE_AND_TIME ( #136, #85 ) ;
#150 = DATE_AND_TIME ( #173, #91 ) ;
#151 = PERSON ( 'UNSPECIFIED', 'UNSPECIFIED', 'UNSPECIFIED', ('UNSPECIFIED'), ('UNSPECIFIED'), ('UNSPECIFIED') ) ;
#152 =( GEOMETRIC_REPRESENTATION_CONTEXT ( 3 ) GLOBAL_UNCERTAINTY_ASSIGNED_CONTEXT ( ( #112 ) ) GLOBAL_UNIT_ASSIGNED_CONTEXT ( ( #7, #103, #147 ) ) REPRESENTATION_CONTEXT ( 'NONE', 'WORKASPACE' ) );
#153 = CALENDAR_DATE ( 2017, 14, 6 ) ;
#154 = CC_DESIGN_PERSON_AND_ORGANIZATION_ASSIGNMENT ( #70, #77, ( #12 ) ) ;
#155 = PLANE ( 'NONE',  #51 ) ;
#156 = APPROVAL_DATE_TIME ( #149, #175 ) ;
#157 = CARTESIAN_POINT ( 'NONE',  ( 0.0000000000000000000, 0.0000000000000000000, -0.6250000000000000000 ) ) ;
#158 = APPROVAL_STATUS ( 'not_yet_approved' ) ;
#159 = CC_DESIGN_SECURITY_CLASSIFICATION ( #146, ( #76 ) ) ;
#160 = ADVANCED_BREP_SHAPE_REPRESENTATION ( 'Web Model 34467_34471', ( #19, #82 ), #152 ) ;
#161 = SECURITY_CLASSIFICATION_LEVEL ( 'unclassified' ) ;
#162 = COORDINATED_UNIVERSAL_TIME_OFFSET ( 5, 0, .BEHIND. ) ;
#163 = PRODUCT_RELATED_PRODUCT_CATEGORY ( 'detail', '', ( #12 ) ) ;
#164 = LINE ( 'NONE', #128, #171 ) ;
#165 = EDGE_LOOP ( 'NONE', ( #50, #35, #53, #2 ) ) ;
#166 = CALENDAR_DATE ( 2017, 14, 6 ) ;
#167 = PERSON_AND_ORGANIZATION_ROLE ( 'classification_officer' ) ;
#168 = CARTESIAN_POINT ( 'NONE',  ( 0.0000000000000000000, 0.0000000000000000000, 0.6250000000000000000 ) ) ;
#169 = CARTESIAN_POINT ( 'NONE',  ( 0.0000000000000000000, 0.0000000000000000000, 0.6250000000000000000 ) ) ;
#170 = EDGE_CURVE ( 'NONE', #23, #62, #48, .T. ) ;
#171 = VECTOR ( 'NONE', #42, 1000.000000000000000 ) ;
#172 = CIRCLE ( 'NONE', #59, 6.250000000000000000 ) ;
#173 = CALENDAR_DATE ( 2017, 14, 6 ) ;
#174 = AXIS2_PLACEMENT_3D ( 'NONE', #169, #101, #84 ) ;
#175 = APPROVAL ( #44, 'UNSPECIFIED' ) ;
ENDSEC;
END-ISO-10303-21;
